top separator

Home

Forum

What's New

Submit a Tab

FAQ

Links

Contact Us

Link to Us

MetalTabs.com logo

Bands

0-9

A

B

C

D

E

F

G

H

I

J

K

L

M

N

O

P

Q

R

S

T

U

V

W

X

Y

Z

Search

What

Where
 

Katatonia - "Shades of emerald fields" Guitar Tab

Plain Text Version
More Katatonia Tabs

Hits: 6089
Rated: 4.50 out of 5 (2 votes)
Updated: 2001-05-17 10:20:04

 

Important note
This tab is available online because we obtained explicit permission from Katatonia or their label.


#----------------------------------PLEASE NOTE---------------------------------#
#This file is the author's own work and represents their interpretation of the #
#song. You may only use this file for private study, scholarship, or research. #
#Unless specified otherwise, this is NOT an official tab from the band members.#
#------------------------------------------------------------------------------#

  Visit MetalTabs.com for more metal tablature
  
Artist:  Katatonia
Album:   For Funerals to come...
Track:   Shades of Emerald fields

Tabbed by : John M
            citastro@hotmail.com
            marym@iol.ie

6th Feb 2000


**** Tune Guitar so first note of song corresponds to D ****

Tuning is regular -E-A-D-G-B-E-
Guitars should delay/reverb on them...

++++++++++++++++++++++++++++++++++++++++++++++++++++++++++++++++++++++++

                            from  0:00 to 1:16
Part 1

^= bend up 1 fret in pitch
\= slide down
/= slide up

Gtr 1 is rhythm, and gtr 2 is lead, gtr 2 comes in after a while.., not
at the start...

Gtr 1:
      -----------------------------------------------------------
      -----------------------------------------------------------
      -----------------------------------------------------------
      4-3-3h5-3-2------------------------------------------------
      5-5-----3-0------------------------------------------------
      -----------------------------------------------------------

Gtr 2:

      -----------------------------------------------------------
      -----------------------------------------------------------
      --------------------------------------5-5-5^-5-------------
      7-77-5-7-7^-7-77-5----------7-77-5-7-8-8-------------------
      ------------------7-7-8-7-5--------------------8-88-7-8-7-8
      ---------------------------8-------------------------------

      -----------------------------------------------------------
      -----------------------------------------------------------
      -----------------------------------------------------------
      5-7-5------------------------------------------------------
      ------8-7--again-------------------------------------------
      ---------8-------------------------------------------------
+++++++++++++++++++++++++++++++++++++++++++++++++++++++++++++++++++++++

Part 2 from 1:19 to 2:07

Here there's two gtr parts, gtr 1 is rhythm, and gtr 2 is lead, which
only comes in when the vocals do:

Gtr 1:

      -----------------------------------------------------------
      -----------------------------------------------------------
      -----------------------------------------------------------
      -----------------------------------------------------------
      7-77777-77779-991010--9--9--9--9-10-10--77777-10-10-10-----
      0-00000-00000-00000--10-10-10-10-10-10--88888-888888888----

Gtr 2 plays:

      -----------------------------------------------------------
      -----------------------------------------------------------
      ------------------------------------------------repeat...--
      -----------------777777777-999999999-----------------------
      10-10-10-10-10-10-------------------9999999-10-777777-10---
      -----------------------------------------------------------

++++++++++++++++++++++++++++++++++++++++++++++++++++++++++++++++++++++++++

Part 3:   from 2:08 t0 2:54

Gtr 1:
      -----------------------------------------------------------
      -----------------------------------------------------------
      -----------------------------------------------------------
      10-10-88-10-10--88-66-88---------'slowly sinking......in the..mire'
      10-10-88-10-10--88-66-88-repeat--10-9-10--9--7-------------
      8--8--88-8--8---66-66-66---------0000000--10-8-------------

Gtr 2: is playing some weird shit, haven't a clue.....

+++++++++++++++++++++++++++++++++++++++++++++++++++++++++++++++++++++++++++

Part 4:  from 2:55 to 3:40


Gtr 1
      -----------------------------------------------------------
      -----------------------------------------------------------
      -----------------------------------------------------------
      555-444----------------------------------------------------
      -------55-777-555------------------------------------------
      -----------------77---------------------------------------

Gtr 2 comes in after 2 bars:

      -----------------------------------------------------------
      -----------------------------------------------------------
      444-222------------------------------99977755444-----------
      -------44-555-444-------------------------------77755------
      -----------------55-repeat and then------------------------
      -----------------------------------------------------------
+++++++++++++++++++++++++++++++++++++++++++++++++++++++++++++++++++++++++++

Part 5 from  3:41 to 4:03

Gtr 1 (with heavy palm muting..)
      -----------------------------------------------------------
      -----------------------------------------------------------
      -----3----------------------------------------------------
      2----3-2--------------------------------------------------
      2----1-2--6-5-2-5-4-2-3-----------------------------------
      0-000--0--4-3-0-3-2-0-1------------------------------------
++++++++++++++++++++++++++++++++++++++++++++++++++++++++++++++++++++++++++

Part 6: from 4:04 till the end

Gtr 1 (clean sound)

      ---0-------------------------------------------------------
      --0-0-------------0-------------------0-------0-------0----
      -3---3- 4 times--0-0---4 times-------0-0-----0-0-----0-0--- repeat this under the singing
      1-----1---------4---4---------------4---4---5---5---4---4--
      ---------------2-----2---------2-4-5-----5-7-----7-2-----2-
      -----------------------------------------------------------

and finish on this:
      ---0-------------------------------------------------------
      --0-0------------------------------------------------------
      -8---8-four times---------0--------------------------------
      6-----6-----------6-4-2-1-2--------------------------------
      --------------------------2--------------------------------
      --------------------------0--------------------------------

++++++++++++++++++++++++++++++++++++++++++++++++++++++++++++++++++++++++++++

  Visit MetalTabs.com for more metal tablature

bottom separator

Contact Us | Privacy Policy | Disclaimer | Legal Notice
Copyright © 2001-2014 MetalTabs.com. All Rights Reserved.