top separator

Home

Forum

What's New

Submit a Tab

FAQ

Links

Contact Us

Link to Us

MetalTabs.com logo

Bands

0-9

A

B

C

D

E

F

G

H

I

J

K

L

M

N

O

P

Q

R

S

T

U

V

W

X

Y

Z

Search

What

Where
 

Crowbar - "You Now (I'll Live Again)" Guitar Tab

Plain Text Version
More Crowbar Tabs

Hits: 4659
Rated: 3.67 out of 5 (3 votes)
Updated: 2003-06-19 12:07:50

 

By:

Father Death

sendpm.gif

email.gif

Important note
This tab is available online because we obtained explicit permission from Crowbar or their label.


#----------------------------------PLEASE NOTE---------------------------------#
#This file is the author's own work and represents their interpretation of the #
#song. You may only use this file for private study, scholarship, or research. #
#Unless specified otherwise, this is NOT an official tab from the band members.#
#------------------------------------------------------------------------------#

  Visit MetalTabs.com for more metal tablature
  
Band:  CROWBAR
Album: Broken Glass
Song:  You Know (I'll Live Again)

Transcribed by:	Chris Humeniuk
Email:  father_death_666@hotmail.com

Tuning:	2.5 steps down

Keys:
 ___ - palm mute
 / \ - slide
  b  - bend
  r  - release bend
  h  - hammer on


RIFF A:

|-----------------------------------------------------|
|-----------------------------------------------------|
|-----------------------------------------------------|
|-6------------------------------8--7--2--------------|
|-6------------------------------6--7--2--------------|
|-4--4-4-4-4-2/4-5br-2/4-4br-2/4-6--5--0--0-0-0-0-0-0-| 5x
     _______                              ___________

|----------------------------------------------|
|----------------------------------------------|
|----------------------------------------------|
|-6------------------------------8--7--2-------|
|-6------------------------------6--7--2-------|
|-4--4-4-4-4-2/4-5br-2/4-4br-2/4-6--5--0----\--|
     _______


RIFF B:

|----------------------------------------------------------------------
|----------------------------------------------------------------------
|----------------------------------------------------------------------
|-8--8--8--8---7--7---------8--8--8--8---7--7---------8-8-8-8-8---7--7-
|-6--6--6--6h8-7--7---------6--6--6--6h8-7--7-0-0-0-0-6-6-6-6-6h8-7--7-
|-6--6--6--6---5--5-0-0-0-0-6--6--6--6---5--5-0-0-0-0-6-6-6-6-6---5--5-
  _______           _______________           _______________

 ------------------------------------|
 ------------------------------------|
 ------------------------------------|
 ----------8--8--8--8---7--7---------|
 -0--0--0--6--6--6--6h8-7--7---------|
 -0--0--0--6--6--6--6---5--5-0-0-0-0-|
  ________________           _______


FILL:

|-------------------------|
|-------------------------|
|-------------------------|
|-------------------------|
|-------------------------|
|-5b-5b-5b-5b-4b-5b-4b-5b-|


RIFF A:

|-----------------------------------------------------|
|-----------------------------------------------------|
|-----------------------------------------------------|
|-6------------------------------8--7--2--------------|
|-6------------------------------6--7--2--------------|
|-4--4-4-4-4-2/4-5br-2/4-4br-2/4-6--5--0--0-0-0-0-0-0-| 3x
     _______                              ___________

|----------------------------------------------|
|----------------------------------------------|
|----------------------------------------------|
|-6------------------------------8--7--2-------|
|-6------------------------------6--7--2-------|
|-4--4-4-4-4-2/4-5br-2/4-4br-2/4-6--5--0----\--|
     _______


RIFF B:

|----------------------------------------------------------------------
|----------------------------------------------------------------------
|----------------------------------------------------------------------
|-8--8--8--8---7--7---------8--8--8--8---7--7---------8-8-8-8-8---7--7-
|-6--6--6--6h8-7--7---------6--6--6--6h8-7--7-0-0-0-0-6-6-6-6-6h8-7--7-
|-6--6--6--6---5--5-0-0-0-0-6--6--6--6---5--5-0-0-0-0-6-6-6-6-6---5--5-
  _______           _______________           _______________

 -----------------------------------------|
 -----------------------------------------|
 -----------------------------------------|
 ----------8--8--8--8---7--7--2-----------|
 -0--0--0--6--6--6--6h8-7--7--2-----------|
 -0--0--0--6--6--6--6---5--5--0-----------|
  ________________


RIFF C:
(Gtr 1)
|---------------------------------------------------|
|---------------------------------------------------|
|---------------------------------------------------|
|---------------------------------------------------|
|---------------------------------------------------|
|-2h4-4-4br--2h4-4br-0--0-5~--2h4-4-4br--0h2-3b--2~-|

(Gtr 2)
|---------------------------------------------------|
|---------------------------------------------------|
|---------------------------------------------------|
|---------------------------------------------------|
|-4h6-6-6br--4h6-6br------7~--4h6-6-6br--2h4-5b--4~-|
|--------------------7--7---------------------------| 4x


RIFF D:

|---------------------------------------|
|---------------------------------------|
|-----------------0---------------------|
|-2---8/9-8-3/6-5-5--2----8/9-8-3/6\5---|
|-2---6/7-6-1/4-3----2----6/7-6-1/4\3---|
|-0------------------0------------------| 2x


RIFF A:

|-----------------------------------------------------
|-----------------------------------------------------
|-----------------------------------------------------
|-6------------------------------8--7--2--------------
|-6------------------------------6--7--2--------------
|-4--4-4-4-4-2/4-5br-2/4-4br-2/4-6--5--0--0-0-0-0-0-0-
     _______                              ___________

 -----------------------------------------|
 -----------------------------------------|
 -----------------------------------------|
 -6------------------------------8--7--2--|
 -6------------------------------6--7--2--|
 -4--4-4-4-4-2/4-5br-2/4-4br-2/4-6--5--0--|
     _______


RIFF B:

|--------------------------------------------------------------------------
|--------------------------------------------------------------------------
|--------------------------------------------------------------------------
|12br-8--8--8--8---7--7---------8--8--8--8---7--7---------8-8-8-8-8---7--7-
|-----6--6--6--6h8-7--7---------6--6--6--6h8-7--7-0-0-0-0-6-6-6-6-6h8-7--7-
|12br-6--6--6--6---5--5-0-0-0-0-6--6--6--6---5--5-0-0-0-0-6-6-6-6-6---5--5-
      _______           _______________           _______________

 ---------------------------------------------------------------------------
 ---------------------------------------------------------------------------
 ---------------------------------------------------------------------------
 ----------8--8--8--8---7--7-------8--8--8--8---7--7---------8--8--8--8---7-
 -0--0--0--6--6--6--6h8-7--7-------6--6--6--6h8-7--7---------6--6--6--6h8-7-
 -0--0--0--6--6--6--6---5--5-/12b~-6--6--6--6---5--5-0-0-0-0-6--6--6--6---5-
  ________________                 _______           _______________

 -----------------------------------------------------|
 -----------------------------------------------------|
 -----------------------------------------------------|
 -7---------8-8-8-8-8---7--7-----------8--8--8--8---7-|
 -7-0-0-0-0-6-6-6-6-6h8-7--7--0--0--0--6--6--6--6h8-7-|
 -5-0-0-0-0-6-6-6-6-6---5--5--0--0--0--6--6--6--6---5-|
    _______________           ________________

  Visit MetalTabs.com for more metal tablature

bottom separator

Contact Us | Privacy Policy | Disclaimer | Legal Notice
Copyright © 2001-2014 MetalTabs.com. All Rights Reserved.