top separator

Home

Forum

What's New

Submit a Tab

FAQ

Links

Contact Us

Link to Us

MuSpy.com

MetalTabs.com logo

Bands

0-9

A

B

C

D

E

F

G

H

I

J

K

L

M

N

O

P

Q

R

S

T

U

V

W

X

Y

Z

Search

What

Where
 

Crowbar - "Wrath Of Time Be Judgement" Guitar Tab

Plain Text Version
More Crowbar Tabs

Hits: 4395
Updated: 2003-06-19 12:07:30

 

By:

Father Death

sendpm.gif

email.gif

Important note
This tab is available online because we obtained explicit permission from Crowbar or their label.


#----------------------------------PLEASE NOTE---------------------------------#
#This file is the author's own work and represents their interpretation of the #
#song. You may only use this file for private study, scholarship, or research. #
#Unless specified otherwise, this is NOT an official tab from the band members.#
#------------------------------------------------------------------------------#

  Visit MetalTabs.com for more metal tablature
  
Band:  CROWBAR
Album: Broken Glass
Song:  Wrath of Time be Judgement

Transcribed by:	Chris Humeniuk
Email:  father_death_666@hotmail.com

Tuning:	2.5 steps down

Keys:
 ___ - palm mute
 / \ - slide


RIFF A:

|------------------------------|
|------------------------------|
|------------------------------|
|------------------------------|
|------------------------------|
|-4-3-2-3--0-4-3-2-5~-0-4-3-2--| 8x


CHORUS:
(Gtr 1)
|-----------------------------------------------------|
|-----------------------------------------------------|
|-----------------------------------------------------|
|-----------------------------------------------------|
|-0--1--2-2----0--1--5-5--5-0--1--2-2----0--3--5-5-8\-|
|-2--3--0-0--0-2--3--5-5--5-2--3--0-0--0-2--1--5-5----|
        ______       ______       ______       ___

(Gtr 2)
|-----------------------------------------------------|
|-----------------------------------------------------|
|-3--4---------3--4---------3--4---------3--2---------|
|-4--5---------4--5---------4--5---------4--3---------|
|-4--5--2-2----4--5--5-5--5-4--5--2-2----4--3--5-5-8\-|
|-------0-0--0-------5-5--5-------0-0--0-------5-5----| 4x
        ______       ______       ______       ___


RIFF B:

|--------------------------------------------------|
|--------------------------------------------------|
|--------------------------------------------------|
|-8----7-------------------------------------------|
|-6----5---4-2-6-5-4-5-----------------------------|
|-6----5---2-0-4-3-2-3-4-3-2-3--0-4-3-2-5~-0-4-3-2-| 2x
           ___________

|------------------------------|
|------------------------------|
|------------------------------|
|------------------------------|
|------------------------------|
|-4-3-2-3--0-4-3-2-5~-0-4-3-2--| 2x

|-----------------------------------------------------------|
|-----------------------------------------------------------|
|-----------------------------------------------------------|
|--------------------------------------------------------3--|
|-6-5-4-5----6-5-4-7----6-5-4--6-5-4-5----6-5-4-7----6-5-3--|
|-4-3-2-3--0-4-3-2-5--0-4-3-2--4-3-2-3--0-4-3-2-5--0-4-3-1--|
  _____    _______    _____    _____    _______    _____


CHORUS - 4x


RIFF B


OUTRO: (Gtr 2 plays the last 4...)

|----------------------------------|
|----------------------------------|
|----------------------------------|
|-2--3--7--6--8-------6--6--4------|
|-2--3--7--6--6-------6--6--4------|
|-0--1--5--4--6--000--4--4--2--5~--| 4x
                 ___

|-----------------------------------|
|-----------------------------------|
|-----------------------------------|
|-2--3--7--6--8--------6--6--4------|
|-2--3--7--6--6--------6--6--4-(4~)-|
|-0--1--5--4--6--0-0-0-4--4--2--5~--| 3x
                 _____

|-----------------------------------|
|-----------------------------------|
|-----------------------------------|
|-2--3--7--6--8-------6--6--4-------|
|-2--3--7--6--6-------6--6--4-(4~\)-|
|-0--1--5--4--6--000--4--4--2--5~\--|
                 ___

  Visit MetalTabs.com for more metal tablature

bottom separator

Contact Us | Privacy Policy | Disclaimer | Legal Notice
Copyright © 2001-2014 MetalTabs.com. All Rights Reserved.