top separator

Home

Forum

What's New

Submit a Tab

FAQ

Links

Contact Us

Link to Us

MuSpy.com

MetalTabs.com logo

Bands

0-9

A

B

C

D

E

F

G

H

I

J

K

L

M

N

O

P

Q

R

S

T

U

V

W

X

Y

Z

Search

What

Where
 

Crowbar - "Conquering" Guitar Tab

Plain Text Version
More Crowbar Tabs

Hits: 6091
Rated: 5.00 out of 5 (1 vote)
Updated: 2003-06-19 12:07:11

 

By:

Father Death

sendpm.gif

email.gif

Important note
This tab is available online because we obtained explicit permission from Crowbar or their label.


#----------------------------------PLEASE NOTE---------------------------------#
#This file is the author's own work and represents their interpretation of the #
#song. You may only use this file for private study, scholarship, or research. #
#Unless specified otherwise, this is NOT an official tab from the band members.#
#------------------------------------------------------------------------------#

  Visit MetalTabs.com for more metal tablature
  
Band:  CROWBAR
Album: Broken Glass
Song:  Conquering

Transcribed by:	Chris Humeniuk
Email:  father_death_666@hotmail.com

Tuning:	2.5 steps down

Keys:
 / \ - slide
 ___ - palm mute
  p  - pull off


VERSE:

|------------------------------------------------------------|
|------------------------------------------------------------|
|------------------------------------------------------------|
|-2-8-7-7-10\-5-10--9-8-7-2-8-7-7-10\-5-10-9-/13-1313131313\-|
|-2-8-7-5--8\-5--8--7-6-5-2-8-7-5--8\-5--8-7-/11-1111111111\-|
|-0-6-5-5--8\-3--8--7-6-5-0-6-5-5--8\-3--8-7-----------------| 4x


CHORUS:

|------------------------------------------------------|
|------------------------------------------------------|
|-5--4-------------------------5--4--------------------|
|-5--4--------5------8--/9-8-7-5--4--------5------8----|
|-3--2----5-4-5------6--/7-6-5-3--2----5-4-5------6----|
|-3--2--0-3-2-3--0-0-6---0-6-5-3--2--0-3-2-3--0-0-6----| 2x
        _____    ___                 _____    ___


FILL:

|--------------------|
|--------------------|
|--------------------|
|--------9-8-7-5-4-3-|
|--------7-6-5-5-4-3-|
|-12\----7-6-5-3-2-1-|


VERSE - 2x


CHORUS - 2x


INTERLUDE:
(Gtr 1)
|---------------------------------------------------|
|---------------------------------------------------|
|---------------------------------------------------|
|---------------------------------------------------|
|---------------------------------------------------|
|-/7~--5~---3-/5--5--5~--\-/5~--3~--2--/3--3--3~----|

(Gtr 2)
|---------------------------------------------------|
|---------------------------------------------------|
|---------------------------------------------------|
|---------------------------------------------------|
|-/7~--9~--10-p9--9--9~--\-/9~--7~--5--/7--7--7~--\-|
|---------------------------------------------------| 6x


PRE OUTRO:

|------------------|     |-------------------------|
|------------------|     |-------------------------|
|-5--4-------------|     |-5--4--------------------|
|-5--4--------8----|     |-5--4--------5------8----|
|-3--2----5-4-6----|     |-3--2----5-4-5------6----|
|-3--2--0-3-2-6----| 3x  |-3--2--0-3-2-3--0-0-6----|
        _____                    _____    ___


OUTRO:

|----------------------|
|----------------------|
|----------------------|
|--------9-8-7-5-4-3-2-|
|--------7-6-5-5-4-3-2-|
|-12\----7-6-5-3-2-1-0-|

  Visit MetalTabs.com for more metal tablature

bottom separator

Contact Us | Privacy Policy | Disclaimer | Legal Notice
Copyright © 2001-2014 MetalTabs.com. All Rights Reserved.