top separator

Home

Forum

What's New

Submit a Tab

FAQ

Links

Contact Us

Link to Us

MuSpy.com

MetalTabs.com logo

Bands

0-9

A

B

C

D

E

F

G

H

I

J

K

L

M

N

O

P

Q

R

S

T

U

V

W

X

Y

Z

Search

What

Where
 

Crowbar - "I Am Forever" Guitar Tab

Plain Text Version
More Crowbar Tabs

Hits: 5634
Updated: 2003-06-19 12:06:48

 

By:

Father Death

sendpm.gif

email.gif

Important note
This tab is available online because we obtained explicit permission from Crowbar or their label.


#----------------------------------PLEASE NOTE---------------------------------#
#This file is the author's own work and represents their interpretation of the #
#song. You may only use this file for private study, scholarship, or research. #
#Unless specified otherwise, this is NOT an official tab from the band members.#
#------------------------------------------------------------------------------#

  Visit MetalTabs.com for more metal tablature
  
Band:  CROWBAR
Album: Broken Glass
Song:  I Am Forever

Transcribed by:	Chris Humeniuk
Email:  father_death_666@hotmail.com

Tuning:	2.5 steps down (B)

Keys:
  b  - bend
 / \ - slide
  r  - release bend


INTRO:
(Gtr 1)
|----------------------------------------------------|
|----------------------------------------------------|
|----------------------------------------------------|
|-8-9-9-10----8-9-9------8-9-9-10----8-9-9-----------|
|-6-7-9-10----6-7-9------6-7-9-10----6-7-9-----------|
|-6-7-7--8----6-7-7-8~---6-7-7--8----6-7-7-8~---14b\-|

(Gtr 2)
|----------------------------------------------------|
|----------------------------------------------------|
|----------------------------------------------------|
|------------------------8-9-9-10----8-9-9------14b\-|
|------------------------6-7-9-10----6-7-9-----------|
|-------------------3~---6-7-7--8----6-7-7-3~--------|


RIFF A:

|--------------------------------------|
|--------------------------------------|
|--------------------------------------|
|-8-9-9-10--5--5-9--8-9-9-10--5--5-9-7-|
|-6-7-9-10--5--5-9--6-7-9-10--5--5-9-7-|
|-6-7-7--8--3--3-7--6-7-7--8--3--3-7-5-| 6x


CHORUS:

|--------------------------------------------|
|--------------------------------------------|
|-------2--------2---------------------------|
|----3--------2-------------------------5----|
|-1--------0------------3~-----3-----5-------|
|-------------------0-3-----4-----3----------| 4x


RIFF A - 4x


CHORUS - 4x


RIFF B:

|----------------------------------------------
|----------------------------------------------
|----------------------------------------------
|---------------------------------------5--5-9-
|-7-----7b-7~-/10-8---5----/7-----7b-7~-5--5-9-
|---0-0-------------0---3b----0-0-------3--3-7-

 ------------------------------------------------|
 ------------------------------------------------|
 ------------------------------------------------|
 ---------------------------------------5--5-9-7-|
 -7-----7b-7~-/10-8---5----/7-----7b-7~-5--5-9-7-|
 ---0-0-------------0---3b----0-0-------3--3-7-5-| 3x


CHORUS - 4x


RIFF C:
(Gtr 1)
|---------------------------------------------|
|---------------------------------------------|
|---------------------------------------------|
|---------------------------5--5--5--5~-------|
|-----------------------3~--3--3--5--5~-------|
|-6~-------5~-------0-3-----------3--3~-------|

(Gtr 2)
|---------------------------------------------|
|---------------------------------------------|
|---------------------------------------------|
|------------------------------5-----5-brbrbr-|
|-5~-------7~-----------3~--3-----5----brbrbr-|
|-------------------0-3-----------------------| 4x


INTRO:
(Gtr 1)
|-----------------------------|
|-----------------------------|
|-----------------------------|
|-8-9-9-10----8-9-9-----------|
|-6-7-9-10----6-7-9-----------|
|-6-7-7--8----6-7-7-8~---14b\-|

(Gtr 2)
|-----------------------------|
|-----------------------------|
|-----------------------------|
|-8-9-9-10----8-9-9------14b\-|
|-6-7-9-10----6-7-9-----------|
|-6-7-7--8----6-7-7-3~--------|


RIFF A - 2x

fin

  Visit MetalTabs.com for more metal tablature

bottom separator

Contact Us | Privacy Policy | Disclaimer | Legal Notice
Copyright © 2001-2014 MetalTabs.com. All Rights Reserved.