top separator

Home

Forum

What's New

Submit a Tab

FAQ

Links

Contact Us

Link to Us

MuSpy.com

MetalTabs.com logo

Bands

0-9

A

B

C

D

E

F

G

H

I

J

K

L

M

N

O

P

Q

R

S

T

U

V

W

X

Y

Z

Search

What

Where
 

Katatonia - "Right into the bliss" Guitar Tab

Plain Text Version
More Katatonia Tabs

Hits: 6705
Rated: 3.50 out of 5 (4 votes)
Updated: 2001-05-17 10:18:33

 

Important note
This tab is available online because we obtained explicit permission from Katatonia or their label.


#----------------------------------PLEASE NOTE---------------------------------#
#This file is the author's own work and represents their interpretation of the #
#song. You may only use this file for private study, scholarship, or research. #
#Unless specified otherwise, this is NOT an official tab from the band members.#
#------------------------------------------------------------------------------#

  Visit MetalTabs.com for more metal tablature
  
Artist: Katatonia
Song Right Into The Bliss
Album: Tonight's Decision

Tabbed by Nikolaj Balle

Any Corrections mail: mimer666@hotmail.com

Riff A Lead Guitar

In the lines below it says 11 and 10 not 1111111 or 10101010,
but i had some troubles figuring out how to put in a way so it didn't look
stupid, hmm i failed.
E|-------------------------------------------------------------------------|
B|-------------------------------------------------------------------------|
G|-------------------------------------------------------------------------|
D|-8-10-1111111111---------1010101010-8h10---------------------------------|
A|-----------------8h10h11----------------8h10-10101010101010101010101010--|
E|-------------------------------------------------------------------------|
 |                                                                         |
 | RIFF A Rythm Guitar                                                     |
 |                                                                         |
E|-------------------------------------------------------------------------|
B|-------------------------------------------------------------------------|
G|-------------------------------------------------------------------------|
D|-------------------------------------------------------------------------|
A|-77777777-5555555-2-333333333333333--------------------------------------|
E|-55555555-3333333-0-111111111111111--------------------------------------|

Riff B
There is some other stuff in this riff too
but i can't figure them out so this is only
the chords
E|-10-12--9-12--9-10-10/12-7-5-7-4-|
B|-10-12--9-12--9-10-10/12-7-5-7-4-|
G|-10-12--9-12--9-10-10/12-7-5-7-4-|
D|-12-14-11-14-11-12-12/14-9-7-9-6-|
A|-12-14-11-14-11-12-12/14-9-7-9-6-|
E|-10-12--9-12--9-10-10/12-7-5-7-4-|

Riff C

Ther is something wierd about
some of the chords the play in this riff
but i thing this is basically correct

E-----------------------------------------------------------------------|
B-----------------------------------------------------------------------|
G------------------44444444---------------------------44444444----------|
D------------------22222222---------------------------22222222----------|
A-2222222-55555555---------55555555-22222222-55555555----------44444444-|
E-0000000-33333333---------33333333-00000000-33333333----------22222222-|

Riff D Lead Guitar

This is not corrected yet but I'll get back to it later

E|-------------------------------------------|
B|-------------------------------------------|
G|-------------------------------------------|
D|----3-4-3h4p3-------3-4-3h4p3-------8-7----|
A|-5------------5-4-5-----------5-4-5----7-8-|
E|-------------------------------------------|
 |                                           |
 |  Rythm Guitar                             |
 |                                           |
E|-------------------------------------------|
B|-------------------------------------------|
G|-------------55555-------------------------|
D|-------------33333-------------------------|
A|-2-5555-7777-------------------------------|
E|-0-3333-5555-------------------------------|

SONG STRUCTURE:

Riff A 4x
Riff B 1x
Riff C 4x
Riff A 4x
Riff B 1x
Riff C 4x
Riff A 4x
Riff D 4x
Riff A 4x(end song)


                                     *Any Corrections Are welcome*

                                         *mimer666@hotmail.com*

  Visit MetalTabs.com for more metal tablature

bottom separator

Contact Us | Privacy Policy | Disclaimer | Legal Notice
Copyright © 2001-2014 MetalTabs.com. All Rights Reserved.