top separator

Home

Forum

What's New

Submit a Tab

FAQ

Links

Contact Us

Link to Us

MetalTabs.com logo

Bands

0-9

A

B

C

D

E

F

G

H

I

J

K

L

M

N

O

P

Q

R

S

T

U

V

W

X

Y

Z

Search

What

Where
 

Skyfire - "Uncloud The Sky" Guitar Tab

Plain Text Version
More Skyfire Tabs

Hits: 4326
Rated: 3.00 out of 5 (1 vote)
Updated: 2003-06-19 12:00:12

 

Important note
This tab is available online because we obtained explicit permission from Skyfire or their label.


#----------------------------------PLEASE NOTE---------------------------------#
#This file is the author's own work and represents their interpretation of the #
#song. You may only use this file for private study, scholarship, or research. #
#Unless specified otherwise, this is NOT an official tab from the band members.#
#------------------------------------------------------------------------------#

  Visit MetalTabs.com for more metal tablature
  
Band:  Skyfire
Album: Mind Revolution
Song:  Uncloud The Sky


Transcribed By: Brady
Email: uncloudthesky@hotmail.com


.  - palm mute           /  - slide up to
\  - slide down to       ~  - vibrato
h  - hammer on           b  - Bend
p  - pull off            Suffixes for bend
t  - tap                 f  - full bend    h - half bend
ph - pinched harmonic    q  - quarter bend t - tap bend
*  - see comment         ^  - Hold bend    r release bend
x  - Stuccatto           ~  - vibrato bend
,  - slight palm mute    () - ghost note, sustained note
.  - tremolo note        <> - Trill

Tunning D A D G B E


[I could be really wrong on this intro lick, they play it really fast and it's hard to hear with all the keyboards added, if you figure this out, send it to me]
E------------------------------------------15--14--12---------------14--12--10---------------12--10--8---------------------------------------
B-------------------------------------------------------15--13--12---------------13--12--10--------------12--10--8---------------------------
G----------------------------7--9--11~--------------------------------------------------------------------------------9------------------------
D-----------7--9--7--9--10-----------------------------------------------------------------------------------------------9---------------------
A-7--9--10-------------------------------------------------------------------------------------------------------------------7~----------------
D------------------------------------------------------------------------------------------------------------------------------------------------
                                                          .   .   .   .   .   .   .   .    .   .   .   .   .   .   .   .    .   .   .   .   .   .   .   .
                                                                                                 [I always pinch this part ^ because it sounds awesome]

                                                 h                                .    .    .    .    .    .    .      h
E-------------------------------------------------------------------------------------------------------------------------------------------------
B---------------------8--10-8--7-----------------------------------8---12-10-8-10-8-7-8-7-5---------------------------------------------------
G9-------11------------------------7--9--11---9--------11--------------------------------------7--9--11---------------------------------------
D-------------------------------------------------------------------------------------------------------------------------------------------------
A--7--7-------7--7--------------------------------7--7------7--7--------------------------------------------------------------------------------
D-------------------------------------------------------------------------------------------------------------------------------------------------


                                                            h                                                    .    .    .   .   .   .   .   .   .   .   .   .
E----------------------------------------------------------------------------------------------------------------------------------------------------------------
B--------------------------11--13--11-10-------------------------------------------11--15-13-11-13-11-13-11-10-11-10-8-----------------------------------
G12----------14---------------------------10--12--14---12-----------14------------------------------------------------------10--12--14--------------------11
D-----------------------------------------------------------------------------------------------------------------------------------------------------9-11-12--
A----10--10------10--10-------------------------------------10--10------10--10---------------------------------------------------------- 9-11-12-----------
D---------------------------------------------------------------------------------------------------------------------------------------------------------------


                                                                                                                    (G.1 ~ G.2 plays upper octave)[below]
E-------------------------------------------------------------------------------------------------------------------------------------------------
B---------------------------------------------------------------------------------------------------------------------------------------4--7--12~
G------------------------------------------------------------------------------------------------------------------7--5--4----------4------------
D--5--------4--------5----7-----9-----7-----5-----7--------4---------5----7-----9----7-----4------9--7--5---------------7~-------------------
A-----7--7-----7--7----7-----7-----7-----7-----7-----5--5-----5--5-----5----5-----5----5-----5-------------9~--------------------------------
D-------------------------------------------------------------------------------------------------------------------------------------------------


E------11--14--19~
B--12--------------
G------------------
D------------------
A------------------
D -----------------


[my favorite part :)]                                                                [repeat beginning lick]       [they may harmonize this part, I can't tell]
E-------------------------------------------------------------------------------------------------|-----------------------------------------------
B------------------10-----------------------------------------------------------------------------|-----------------------------------------------
G---8--9--11-12------12--11--9--12--11--9------------------7--9--11--9--7------9--7---------|---5-----7---9---7-----9---11-----------------
D9---------------------------------------------12-----5--7--9------------------11--------11--7-|-----5-5---5-------7-7---7--------------------
A-------------------------------------------------------------------------------------------------|------------------------------------------------
D-------------------------------------------------------------------------------------------------|------------------------------------------------


E-------------------------------------------------------------------------
B-------------------------------------------------------------------------
G2-------5--4--2---7--5--4-----4------7--6--4---9--7--6---------------
D2------------------------------4----------------------------------------
A0--xxx------------------------2--xxx-----------------------------------
D-------------------------------------------------------------------------
                                                                                   [They go into the same lick just one fret up, I think you can figure it out ;)]
E-------------------------------------------------------------------------------------------------------------------------------------------------
B---------------------13--12--10-12~------------------------------------------------------------------------------------------------------------
G9--12--11--9--------------------------5--7--9--7--9--11--------------------------------------------------------------------------------------
D---------------12-------------------------------------------------------------------------------------------------------------------------------
A-------------------------------------------------------------------------------------------------------------------------------------------------
D-------------------------------------------------------------------------------------------------------------------------------------------------

                                                                                                                   [fill]     [repeat one fret up]
E--------------------------------------------------------------------------------10--8--7---------------------------------------------------------
B---------10--12--13--15--13--12--12--13-----------------8--10--12--10--8-----------------------------8--10--12------13-12-10-15-13-12--
G-7--13--------------------------------------14~---7--11------------------------------------------7--11-------------12------------------------
D-------------------------------------------------------------------------------------------------------------------------------------------------
A-------------------------------------------------------------------------------------------------------------------------------------------------
D-------------------------------------------------------------------------------------------------------------------------------------------------

[I haven't figured out the part after this yet, but Ithink you can handle it.  All that remains from here is a part that I already tabbed and
the outro lick which I'm too tired to do right now.  Send corrections to my errors at: uncloudthesky@hotmail.com]

  Visit MetalTabs.com for more metal tablature

bottom separator

Contact Us | Privacy Policy | Disclaimer | Legal Notice
Copyright © 2001-2014 MetalTabs.com. All Rights Reserved.