top separator

Home

Forum

What's New

Submit a Tab

FAQ

Links

Contact Us

Link to Us

MuSpy.com

MetalTabs.com logo

Bands

0-9

A

B

C

D

E

F

G

H

I

J

K

L

M

N

O

P

Q

R

S

T

U

V

W

X

Y

Z

Search

What

Where
 

Crowbar - "Reborn Thru Me" Guitar Tab

Plain Text Version
More Crowbar Tabs

Hits: 4613
Updated: 2003-06-19 11:56:56

 

By:

Father Death

sendpm.gif

email.gif

Important note
This tab is available online because we obtained explicit permission from Crowbar or their label.


#----------------------------------PLEASE NOTE---------------------------------#
#This file is the author's own work and represents their interpretation of the #
#song. You may only use this file for private study, scholarship, or research. #
#Unless specified otherwise, this is NOT an official tab from the band members.#
#------------------------------------------------------------------------------#

  Visit MetalTabs.com for more metal tablature
  
Band:  CROWBAR
Album: Broken Glass
Song:  Reborn Thru Me

Transcribed by:	Chris Humeniuk
Email:  father_death_666@hotmail.com

Tuning:	3.5 steps down

Keys:
 ___ - palm mute
  b  - bend
  h  - hammer on
 / \ - slide


INTRO:

|---------|     |-----------------|
|---------|     |-----------------|
|---------|     |-----------------|
|-9-9-----|     |-7-5-2-3-5-10-10-|
|-7-7-----|     |-5-3-2-3-3--8--8-|
|-----000-| 8x  |-----0-1---------|


CHORUS:

|-----------------------------------------|
|-----------------------------------------|
|-----------------------------------------|
|-2--7-7------------------7--3-3-5--10-10-|
|-2--7-7------------------7--3-3-3---8--8-|
|-0--5-5--0-10-9-0-10-9-0-5--1-1----------| 4x


VERSE:

|---------------------------------------------------------|
|---------------------------------------------------------|
|---------------------------------------------------------|
|-2----4-4-4-4-----4-4---4-4-4-2----4-4-4-4-----4-4---5-5-|
|-2----2-2-2-2-----4-4---4-4-4-2----2-2-2-2-----4-4---3-3-|
|-0---(0)------3~--2-2---2-2-2-0---(0)------3~--2-2-------| 4x
                         _____


CHORUS - 4x


VERSE - 2x


CHORUS - 3x


|--------------------------------------------|
|--------------------------------------------|
|--------------------------------------------|
|-2--7-7------------------7--3-3-5--10-10-10-|
|-2--7-7------------------7--3-3-3---8--8--8-|
|-0--5-5--0-10-9-0-10-9-0-5--1-1-------------|


BRIDGE:

||--------------------|     |--------------------||
||--------------------|     |--------------------||
||--------------------|     |--------------------||
||----9---------------|     |----9---------------||
||----7---------------|     |----7--------5h7-7b-||
||-0----4h5-4~-0h3-3b-| 3x  |-0----4h5-4~--------|| 2x


OUTRO: (fades out)

|-------------------------------------------------|
|-------------------------------------------------|
|-------------------------------------------------|
|----12\11-14-------------------------8-----------|
|----10\-9-12--10\9-12----------------8-----------|
|-0-------------8\7-10--0-0-0-0-0-0-0-6-0-2~-0h2~-|
                        _____________   _

  Visit MetalTabs.com for more metal tablature

bottom separator

Contact Us | Privacy Policy | Disclaimer | Legal Notice
Copyright © 2001-2014 MetalTabs.com. All Rights Reserved.