top separator

Home

Forum

What's New

Submit a Tab

FAQ

Links

Contact Us

Link to Us

MetalTabs.com logo

Bands

0-9

A

B

C

D

E

F

G

H

I

J

K

L

M

N

O

P

Q

R

S

T

U

V

W

X

Y

Z

Search

What

Where
 

The Haunted - "In Vein" Guitar Tab

Plain Text Version
More The Haunted Tabs

Hits: 5170
Rated: 2.20 out of 5 (5 votes)
Updated: 2003-06-16 14:57:21

 

By:

metaltabs28

sendpm.gif

email.gif

Important note
This tab is available online because we obtained explicit permission from The Haunted or their label.


#----------------------------------PLEASE NOTE---------------------------------#
#This file is the author's own work and represents their interpretation of the #
#song. You may only use this file for private study, scholarship, or research. #
#Unless specified otherwise, this is NOT an official tab from the band members.#
#------------------------------------------------------------------------------#

  Visit MetalTabs.com for more metal tablature
  
Band: The Haunted
Song: In Vein
Album: The Haunted

Copyright (c) Earache Records,1998
Version 1.0 - 5/21/03

Transcribed By: metaltabs28
Email: metaltabs28@yahoo.com

.  - palm mute           /  - slide up to
\  - slide down to       ~  - vibrato
h  - hammer on           b  - Bend
p  - pull off            Suffixes for bend
t  - tap                 f  - full bend    h - half bend
ph - pinched harmonic    q  - quarter bend t - tap bend
*  - see comment         ^  - Hold bend    r release bend
x  - Stuccatto           ~  - vibrato bend
,  - slight palm mute    () - ghost note, sustained note
"  - tremolo note        <> - Trill

Tuning: Eb

Riff A x2
|------------------------------------------------------|
|------------------------------------------------------|
|------------------------------------------------------|
|------------------------------------------------------|
|------------------------------------9-9-9-9-----------|
|--00-00-00-00-5--7--8--11-11-11-11-----------8--7--5--|

Riff B x2
|--------------------------------------------------------------------|
|--------------------------------------------------------------------|
|--------------------------7h8-4-----------------------------7h8-4---|
|-----9p8h9--9p6h8--9p8h9---------------9p8h9--9p6h8--9p8h9----------|
|--------------------------------------------------------------------|
|--0--------------------------------0--------------------------------|

Riff C
|----------------------------------------------------------------------|
|----------------------------------------------------------------------|
|----------------------------------------------------------------------|
|----------------------------------------------------------------------|
|--------------------9----------------------------7--6-7-9-10---3-2-0--|
|--0-000-5--7--8--10----8--7--5--3220--00-5--7--8----------------------|

Riff B x2

Riff D x4
|-----------------------------------------------|
|-----------------------------------------------|
|-----------------------------------------------|
|---------------5-------------------------------|
|-----7p6-6h7-----7-6h7---7p6-6h7--3-2-0--0000--|
|--0--------------------------------------------|
                         ^_______^        ....
                             *skip for the 2nd and 4th times
Riff E x3           e2
|------------------|-----------|
|------------------|-----------|
|------------------|-----------|
|--4-4-5--4-4-4-5--|--4--3--2--|
|--4-4-5--4-4-4-5--|--4--3--2--|
|--2-2-3--2-2-2-3--|--2--1-----|
   .      . .

Chorus x2
|-----------------7---5-------------------------------------|
|-----------------7---5------------12--10---10/9-12---------|
|-------7/9-9-9---6---6---12/11/9---------------------------|
|-----------------9---7-------------9---7----7/6--9---------|
|-------5/7-7-7---9---7---10/9/7---------------------3-2-0--|
|--0-0------------7---5-------------------------------------|

Solo
|---------------------------------------------------------------
|--8-5-4-555-444-5--555-777-555-7--444-555-444-5--444-555--0-1--
|---------------------------------------------------------------
|---------------------------------------------------------------
|---------------------------------------------------------------
|---------------------------------------------------------------

 ---------------------------------------------|
 --8--7--5--4--4--5--7--8---------------------|
 ---------------------------8-9-11-12--5-4-0--|
 ---------------------------------------------|
 ---------------------------------------------|
 ---------------------------------------------|

Riff B x2
Riff D x4

Chorus x4

  Visit MetalTabs.com for more metal tablature

bottom separator

Contact Us | Privacy Policy | Disclaimer | Legal Notice
Copyright © 2001-2014 MetalTabs.com. All Rights Reserved.