top separator

Home

Forum

What's New

Submit a Tab

FAQ

Links

Contact Us

Link to Us

MetalTabs.com logo

Bands

0-9

A

B

C

D

E

F

G

H

I

J

K

L

M

N

O

P

Q

R

S

T

U

V

W

X

Y

Z

Search

What

Where
 

Katatonia - "Nowhere" Guitar Tab

Plain Text Version
More Katatonia Tabs

Hits: 5114
Rated: 5.00 out of 5 (1 vote)
Updated: 2001-05-17 10:17:35

 

Important note
This tab is available online because we obtained explicit permission from Katatonia or their label.


#----------------------------------PLEASE NOTE---------------------------------#
#This file is the author's own work and represents their interpretation of the #
#song. You may only use this file for private study, scholarship, or research. #
#Unless specified otherwise, this is NOT an official tab from the band members.#
#------------------------------------------------------------------------------#

  Visit MetalTabs.com for more metal tablature
  
Artist:  Katatonia
Album:   Sounds of Decay
Track:   Nowhere

Tabbed by : John M
            citastro@hotmail.com
	    marym@iol.ie

6th Feb 2000

This is a great song from '97's 'Sounds of Decay' mcd



**** Tune down Guitar so first note of song corresponds to a slide from C to B ****

Tuning is regular -E-A-D-G-B-E-

++++++++++++++++++++++++++++++++++++++++++++++++++++++++++++++++++++++++

                              0:00 to 1:04
Part 1

This has a lead (gtr 2) and a rhythm, (gtr 1)

Gtr 1:
       -------------------------------------------0----
       -------------------------------------------5----
       ------------------2--------------------2---4---- play until 1:04
       -5-4----------2---2--4---5-4---------2-2-4-2---- and let last time
       -3-2--2h3h2h0-3---0--2---3-2-2h3h2h0-3-0-2-2---- ring long, and scratch
       -------------------------------------------0---- the pick down the neck

Gtr 2: to be played with vibrato etc...
	\ = slide down   / = slide up    h = hammer on

      ----------------------------------------------------------------
      -----------------------------------------------------12-12------
      -----------9--9-9\7----------------------------11----------12---
      10-9-9h10h9---------10-9-9h10h9-7h9h7-13-12-13----13------------
      ----------------------------------------------------------------
      ----------------------------------------------------------------

++++++++++++++++++++++++++++++++++++++++++++++++++++++++++++++++++++++++++++++++

Part 2    (verse 1)         from 1:11 to  1:42

Has 2 gtr parts again:

Gtr 1:

      -----------------------------------------------------------------
      -----------------------------------------------------------------
      2-4-4-2-4-4-2-4--77------4-5555555555---2-4-4-2-4-4-2-4--77------
      2-4-4-2-4-4-2-4--77etc---4-5555555555---2-4-4-2-4-4-2-4--77etc---
      0-2-2-0-2-2-0-2--55------2-3333333333---0-2-2-0-2-2-0-2--55------
      ---------------------------------0000----------------------------

Gtr 2:

      -----------------------------------------------------------
      -----------------------------------------------------------
      9/-11--9/-11--9/-11-11-11--12-12-12-12-12------------------
      7/-9---7/-9---7/-9--9--9---10-10-10-10-10------------------
      -----------------------------------------------------------
      -----------------------------------------------------------

      -----------------------------------------------------------
      -----------------------------------------------------------
      -9/-11--9/-11--9/-11-11-11--12-12-12-12-12---9/-11--9/-11--9/-11-11-11-
      -7/-9---7/-9---7/-9--9--9---10-10-10-10-10---7/-9---7/-9---7/-9--9--9--
      -----------------------------------------------------------
      -----------------------------------------------------------
+++++++++++++++++++++++++++++++++++++++++++++++++++++++++++++++++++++++++++++

Part 3
Both of the above parts play until 1:42, at which point Part 3 starts,
which again, has rhythm (gtr 1) and lead (gtr 2). Part 3 is played 4
times, until 2:10.

Gtr 1
      --------------------------------------------------------------
      --------------------------------------------------------------
      4-5-----------------------------------------------------------
      2-5----3-5-------9--------------------------------------------
      2-3--5-3-3-3\2---7--9-7-5  and repeat, 4th time ending on---7-
      0-3-3--1------3-----7-5-3-----------------------------------5-

Gtr 2
      -----------------------------------------------------------
      -------------------12--12----------------------------------
      ---------9--12-11----11--11----by four---------------------
      -9-9-7-----------------------------------------------------
      7-----7----------------------------------------------------
      -----------------------------------------------------------
+++++++++++++++++++++++++++++++++++++++++++++++++++++++++++++++++++

Bridge piece, comes in at 2:11, played by (lead) gtr 2:
      -----------------------------------------------------------
      -13--------------------------------------------------------
      ---14------------------------------------------------------
      -----14-13-12-10-9-6-7-------------------------------------
      -----------------------------------------------------------
      -----------------------------------------------------------
+++++++++++++++++++++++++++++++++++++++++++++++++++++++++++++++++++
Part 4:
has rhy (gtr 1), and lead (gtr 2)

Gtr 1
      ----------------------------------------------------------
      -------------------------------------------5--------------
      2-2--------7-------------------------------4--------------
      2-3--5--3--7---repeat until 3:40 and play -2--------------
      0-0--5--3--5-------------------------------2--------------
      -----3--1----------------------------------0--------------

Gtr 2
	---------------------------------------------------------
 	---------------------------------------------------------
        ---------------------------------------------------------
        7--7h10h7 7-10-8-7-7h8h7----played a few times-----------
        ---------------------------------------------------------
        ---------------------------------------------------------
Gtr 2 cont'd..
      -----------------------------------------------------------
      -----------------------------------------------------------
      -----9--------9--------------------------------------------
      7-10--10-9--10-10-9--9-10-7--------------------------------
      -----------------------------------------------------------
      -----------------------------------------------------------
++++++++++++++++++++++++++++++++++++++++++++++++++++++++++++++++++++

Part 5:
Comes in at 3:40 to 4:24
Has Distorted gtr 1, and clean gtr 2:

Gtr 1 plays:

      -----------------------------------------------------------
      -----------------------------------------------------------
      -----------------------------------------------------------
      -22-22-22-22-22-22-22-22-------------22-22-22-22-----------
      -22-22-22-22-22-22-22-22-87-87-87-87-22-22-22-22-----------
      -00-00-00-00-00-00-00-00-65-65-65-65-00-00-00-00-----------

Gtr 2 plays:

      -----------------------------------------------------------------------
      -----------------------------------------------------------------------
      --11--11-----11--11----------------------11----11---------11----11-----
      -9---9--9---9---9--9--------and then---10----10--10-----10----10--10---
      7---7----7-7---7----7 etc..----------12----12------12-12----12------12-
      -----------------------------------------------------------


      ------------------------------------------------------------------------------
      ------------------------------------------------------------------------------
      ---7--7-7---7--7-7------------------------------------------------------------
      --9--9-9---9--9-9- etc and then clean gtr stops, gtr 1 goes on until interlude
      -7--7-----7--7----------------------------------------------------------------
      ------------------------------------------------------------------------------
++++++++++++++++++++++++++++++++++++++++++++++++++++++++++++++++++++++++++++++++++++++

Interlude: From 4:23 to 4:52.

Again, gtr 1 is rhythm, and gtr 2 is lead:

Gtr 1:

      ------------------------------------------------------------
      -----------------------------------------------------------5
      -----------------------------------------------------------4
      2--9\8--4/5--2-------9-9\8--4/5--2---4--play x2 and end on 2
      2--7\6--2/3--0-0-6---7-7\6--2/3--0-0-2---------------------2
      0----------------4---0-------------------------------------0

Gtr 2:
      -----------------------------------------------------------
      -----------------------------------------------------------
      -9-9-8----------------8----play x 4 i think...-------------
      ------9-10-10\7---7-9--------------------------------------
      -----------------------------------------------------------
      -----------------------------------------------------------

+++++++++++++++++++++++++++++++++++++++++++++++++++++++++++++++++++++++++++++++++++++

Then verse comes back in (Part 2) followed by part 3 and end.
 Have fun!
+++++++++++++++++++++++++++++++++++++++++++++++++++++++++++++++++++++++++++++++++++++

  Visit MetalTabs.com for more metal tablature

bottom separator

Contact Us | Privacy Policy | Disclaimer | Legal Notice
Copyright © 2001-2014 MetalTabs.com. All Rights Reserved.