top separator

Home

Forum

What's New

Submit a Tab

FAQ

Links

Contact Us

Link to Us

MuSpy.com

MetalTabs.com logo

Bands

0-9

A

B

C

D

E

F

G

H

I

J

K

L

M

N

O

P

Q

R

S

T

U

V

W

X

Y

Z

Search

What

Where
 

Crowbar - "Burn Your World" Guitar Tab

Plain Text Version
More Crowbar Tabs

Hits: 5046
Updated: 2003-06-16 14:17:38

 

By:

Father Death

sendpm.gif

email.gif

Important note
This tab is available online because we obtained explicit permission from Crowbar or their label.


#----------------------------------PLEASE NOTE---------------------------------#
#This file is the author's own work and represents their interpretation of the #
#song. You may only use this file for private study, scholarship, or research. #
#Unless specified otherwise, this is NOT an official tab from the band members.#
#------------------------------------------------------------------------------#

  Visit MetalTabs.com for more metal tablature
  
Band:  CROWBAR
Album: Broken Glass
Song:  Burn Your World

Transcribed by:	Chris Humeniuk
Email:  father_death_666@hotmail.com

Tuning:	2.5 steps down (B)

Keys:
 / \ - slide
 ___ - palm mute
  b  - bend
  r  - release bend


RIFF A:

|----------------------------------------|
|----------------------------------------|
|----------------------------------------|
|-4-4----8\7-8--3-3-2--4-4----4-4-4-2----|
|-2-2----6\5-6--1-1-2--2-2----4-4-4-2----|
|-2-2--0-6\5-6--1-1-0--2-2--0-2-2-2-0----| 4x


RIFF B:

|-------------------------------------------------------
|-------------------------------------------------------
|-------------------------------------------------------
|-------------------------------------------------------
|---/4-3-----6~--1-1-2-1------/4-3-----6~--1-1-2-1------
|-0------0-3-------------2~-2------0-3-------------2~-2-

 ---------------------------------------------------|
 ---------------------------------------------------|
 ---------------------------------------------------|
 ---------------------------------------------------|
 -/4-3-----6~--1-1-2-1------/4-3-----6~--1-1-2-1----|
 ------0-3-------------2~-2------0-3-------------2~-|


RIFF A - 4x


RIFF B


RIFF A:
|----------------------------------------
|----------------------------------------
|----------------------------------------
|-4-4----8\7-8--3-3-2--4-4----4-4-4-2----
|-2-2----6\5-6--1-1-2--2-2----4-4-4-2----
|-2-2--0-6\5-6--1-1-0--2-2--0-2-2-2-0----

 -----------------------------------|
 -----------------------------------|
 -----------------------------------|
 -4-4----8\7-8--3-3-2--4-4----4-4-4-|
 -2-2----6\5-6--1-1-2--2-2----4-4-4-|
 -2-2--0-6\5-6--1-1-0--2-2--0-2-2-2-|


RIFF C:

|-------------------------------------------------------------
|-------------------------------------------------------------
|-------------------------------------------------------------
|-------------------------------------------------------------
|-2-2-2------3-3-3-----5-5------2-2-2------3-3-3-----5-5------
|-0-0-0-3br--1-1-1-1br-5-5-2-br-0-0-0-3br--1-1-1-1br-5-5-2-br-
  _____      _____     ___      _____      _____     ___

 ------------------------------------------------------------|
 ------------------------------------------------------------|
 ------------------------------------------------------------|
 ------------------------------------------------------------|
 -2-2-2------3-3-3-----5-5------2-2-2------3-3-3-----5-5-3b~-|
 -0-0-0-3br--1-1-1-1br-5-5-2-br-0-0-0-3br--1-1-1-1br-5-5-----| 2x
  _____      _____     ___      _____      _____     ___


RIFF D:

|--------------------------------|
|--------------------------------|
|--------------------------------|
|--------------------------------|
|-2-2-2------3-3-3---------------|
|-0-0-0-3br--1-1-1-1br-7br-5-5-7-| 7x
  _____      _____

|---------------------------------|
|---------------------------------|
|---------------------------------|
|---------------------------------|
|-2-2-2------3-3-3----------------|
|-0-0-0-3br--1-1-1-1br-7br-5-5-7\-|
  _____      _____

  Visit MetalTabs.com for more metal tablature

bottom separator

Contact Us | Privacy Policy | Disclaimer | Legal Notice
Copyright © 2001-2014 MetalTabs.com. All Rights Reserved.