top separator

Home

Forum

What's New

Submit a Tab

FAQ

Links

Contact Us

Link to Us

MetalTabs.com logo

Bands

0-9

A

B

C

D

E

F

G

H

I

J

K

L

M

N

O

P

Q

R

S

T

U

V

W

X

Y

Z

Search

What

Where
 

Rivendell - "The Song of Eldamar" Guitar Tab

Plain Text Version
More Rivendell Tabs

Hits: 4955
Rated: 4.00 out of 5 (4 votes)
Updated: 2003-06-14 09:08:36

 

By:

Darkenelf

sendpm.gif

email.gif

Important note
This tab is available online because we obtained explicit permission from Rivendell or their label.


#----------------------------------PLEASE NOTE---------------------------------#
#This file is the author's own work and represents their interpretation of the #
#song. You may only use this file for private study, scholarship, or research. #
#Unless specified otherwise, this is NOT an official tab from the band members.#
#------------------------------------------------------------------------------#

  Visit MetalTabs.com for more metal tablature
  
Band: Rivendell
Album: Elven Tears
Song: The Song of Eldamar
Tabbed by: Martijn Wietsma
Tab Date: 22-05-03
Email: dalvanian@yahoo.com

Standard E Tuning

riff A
|------------------------------------------------------------|
|--------------8-8-6-6---------------------------------------|
|-7--7-9-10-10---------9-9--7\5/7--7-7-7--5------------------|
|------------------------------------------------------------|
|------------------------------------------------------------|
|------------------------------------------------------------|

|------------------------------------------------------------|
|--------------8-8-6-6---------------------------------------|
|-7--7-9-10-10---------9-9--7\5/7--7-7-7--7-7-7--------------|
|------------------------------------------------------------|
|------------------------------------------------------------|
|------------------------------------------------------------|
						(2x)
riff B (flute solo)
|------------------------------------------------------------|
|--------------8-8\6-6---------------------------------------|
|-/7-7-9-10-10---------9-9\7-7\5/7--7-7-7--5-----------------|
|------------------------------------------------------------|
|------------------------------------------------------------|
|------------------------------------------------------------|

|------------------------------------------------------------|
|--------------8-8\6-6---------------------------------------|
|-/7-7-9-10-10---------9-9\7-7\5/7--7-7-7--7-7-7-------------|
|------------------------------------------------------------|
|-------------------------------------------------0-5-(0)----|
|------------------------------------------------------------|

riff C
|------------------------------------------------------------|
|------------------------------------------------------------|
|----------7---7---------------------------------------------|
|-7---7----5-5-5-5-\5-/7-7-7--5-7----------------------------|
|-5-5-5-5----------\3-/5-5-5--3-5----------------------------|
|------------------------------------------------------------|

|------------------------------------------------------------|
|------------------------------------------------------------|
|----------7---7---------------------------------------------|
|-7---7----5-5-5-5-\5-/7-7-7--7-7----------------------------|
|-5-5-5-5----------\3-/5-5-5--5-5----------------------------|
|------------------------------------------------------------|
						(2x)
riff D
|------------------------------------------------------------|
|------------------------------------------------------------|
|------------------------------------------------------------|
|--------7-----7---------------------------------------------|
|-8--10--5-5-5-5-5-5-----------------------------------------|
|-6---8------------------------------------------------------|
           x x   x x 				(4x)
riff A
|------------------------------------------------------------|
|--------------8-8-6-6---------------------------------------|
|-7--7-9-10-10---------9-9--7\5/7--7-7-7--5------------------|
|------------------------------------------------------------|
|------------------------------------------------------------|
|------------------------------------------------------------|

|------------------------------------------------------------|
|--------------8-8-6-6---------------------------------------|
|-7--7-9-10-10---------9-9--7\5/7--7-7-7--7-7-7--------------|
|------------------------------------------------------------|
|------------------------------------------------------------|
|------------------------------------------------------------|
						(2x)
riff C
|------------------------------------------------------------|
|------------------------------------------------------------|
|----------7---7---------------------------------------------|
|-7---7----5-5-5-5-\5-/7-7-7--5-7----------------------------|
|-5-5-5-5----------\3-/5-5-5--3-5----------------------------|
|------------------------------------------------------------|

|------------------------------------------------------------|
|------------------------------------------------------------|
|----------7---7---------------------------------------------|
|-7---7----5-5-5-5-\5-/7-7-7--7-7----------------------------|
|-5-5-5-5----------\3-/5-5-5--5-5----------------------------|
|------------------------------------------------------------|
						(2x)
riff E
|------------------------------------------------------------|
|------------------------------------------------------------|
|------------------------------------------------------------|
|---------------7-----7--------------------------------------|
|-8--8/10--10/--5-5-5-5-5-5----------------------------------|
|-6--6/-8---8/-----------------------------------------------|
                  x x   x x 			(4x)

riff A
|------------------------------------------------------------|
|--------------8-8-6-6---------------------------------------|
|-7--7-9-10-10---------9-9--7\5/7--7-7-7--5------------------|
|------------------------------------------------------------|
|------------------------------------------------------------|
|------------------------------------------------------------|

|------------------------------------------------------------|
|--------------8-8-6-6---------------------------------------|
|-7--7-9-10-10---------9-9--7\5/7--7-7-7--7-7-7--------------|
|------------------------------------------------------------|
|------------------------------------------------------------|
|------------------------------------------------------------|
						(2x)
riff A
|------------------------------------------------------------|
|--------------8-8-6-6---------------------------------------|
|-7--7-9-10-10---------9-9--7\5/7--7-7-7--5------------------|
|------------------------------------------------------------|
|------------------------------------------------------------|
|------------------------------------------------------------|

|------------------------------------------------------------|
|--------------8-8-6-6---------------------------------------|
|-7--7-9-10-10---------9-9--7\5/7--7-7-7--7-7-7--------------|
|------------------------------------------------------------|
|------------------------------------------------------------|
|------------------------------------------------------------|
						(2x)
riff B (flute solo)
|------------------------------------------------------------|
|--------------8-8\6-6---------------------------------------|
|-/7-7-9-10-10---------9-9\7-7\5/7--7-7-7--5-----------------|
|------------------------------------------------------------|
|------------------------------------------------------------|
|------------------------------------------------------------|

|------------------------------------------------------------|
|--------------8-8\6-6---------------------------------------|
|-/7-7-9-10-10---------9-9\7-7\5/7--7-7-7--7-7-7-------------|
|------------------------------------------------------------|
|-------------------------------------------------0-5-(0)----|
|------------------------------------------------------------|

riff C
|------------------------------------------------------------|
|------------------------------------------------------------|
|----------7---7---------------------------------------------|
|-7---7----5-5-5-5-\5-/7-7-7--5-7----------------------------|
|-5-5-5-5----------\3-/5-5-5--3-5----------------------------|
|------------------------------------------------------------|

|------------------------------------------------------------|
|------------------------------------------------------------|
|----------7---7---------------------------------------------|
|-7---7----5-5-5-5-\5-/7-7-7--7-7----------------------------|
|-5-5-5-5----------\3-/5-5-5--5-5----------------------------|
|------------------------------------------------------------|
						(2x)
riff E
|------------------------------------------------------------|
|------------------------------------------------------------|
|------------------------------------------------------------|
|---------------7-----7--------------------------------------|
|-8--8/10--10/--5-5-5-5-5-5----------------------------------|
|-6--6/-8---8/-----------------------------------------------|
                  x x   x x 			(4x)

riff F (during riff E)
|-6--10-8-10-8-10---8-10-12-10-8-(10)------------------------|
|------------------------------------------------------------|
|------------------------------------------------------------|
|------------------------------------------------------------|
|------------------------------------------------------------|
|------------------------------------------------------------|
						(4x)


For more tabs from me,
goto: http://www.doomish.com/go/?r=Darkenelf

  Visit MetalTabs.com for more metal tablature

bottom separator

Contact Us | Privacy Policy | Disclaimer | Legal Notice
Copyright © 2001-2014 MetalTabs.com. All Rights Reserved.