top separator

Home

Forum

What's New

Submit a Tab

FAQ

Links

Contact Us

Link to Us

MetalTabs.com logo

Bands

0-9

A

B

C

D

E

F

G

H

I

J

K

L

M

N

O

P

Q

R

S

T

U

V

W

X

Y

Z

Search

What

Where
 

Summoning - "Where winters forever cry" Guitar Tab

Plain Text Version
More Summoning Tabs

Hits: 6163
Rated: 3.50 out of 5 (4 votes)
Updated: 2003-06-14 09:04:20

 

By:

Darkenelf

sendpm.gif

email.gif

Important note
This tab is available online because we obtained explicit permission from Summoning or their label.


#----------------------------------PLEASE NOTE---------------------------------#
#This file is the author's own work and represents their interpretation of the #
#song. You may only use this file for private study, scholarship, or research. #
#Unless specified otherwise, this is NOT an official tab from the band members.#
#------------------------------------------------------------------------------#

  Visit MetalTabs.com for more metal tablature
  
Band: Summoning
Album: Lugburz
Song: Where Winters Forever Cry
Tabbed by: Martijn Wietsma (Darkenelf)
Tab Date: 22-05-03
Email: dalvanian@yahoo.com

Standard E Tuning

riff A
|----------------------------------------------------------|
|----------------------------------------------------------|
|----------------------------------------------------------|
|----------------------------------------------------------|
|-9--9-9--9/10-10-----9--9-9--7-5-4------------------------|
|-7--7-7--7/-8--8-----7--7-7--5-3-2------------------------|
						(4x)
riff B
|----------------------------------------------------------|
|----------------------------------------------------------|
|----------------------------------------------------------|
|-9-9p7h-------------------7-------------------------------|
|--------10p9h10--9-9--7-5---------------------------------|
|----------------------------------------------------------|

|----------------------------------------------------------|
|----------------------------------------------------------|
|----------------------------------------------------------|
|-9-9p7h---------------------------------------------------|
|--------10p9h10--9-9--7-5-4-------------------------------|
|----------------------------------------------------------|
						(4x)
riff C
|----------------------------------------------------------|
|----------------------------------------------------------|
|----------------------------------------------------------|
|----------------------------7-----------------------------|
|-9-9-7h9-10-10--9-9--7-5h7h-------------------------------|
|----------------------------------------------------------|

|----------------------------------------------------------|
|----------------------------------------------------------|
|----------------------------------------------------------|
|----------------------------------------------------------|
|-9-9--7h9-10-10--9-9--7-5-4-------------------------------|
|----------------------------------------------------------|
						(2x)
riff B
|----------------------------------------------------------|
|----------------------------------------------------------|
|----------------------------------------------------------|
|-9-9p7h-------------------7-------------------------------|
|--------10p9h10--9-9--7-5---------------------------------|
|----------------------------------------------------------|

|----------------------------------------------------------|
|----------------------------------------------------------|
|----------------------------------------------------------|
|-9-9p7h---------------------------------------------------|
|--------10p9h10--9-9--7-5-4-------------------------------|
|----------------------------------------------------------|
						(4x)
riff D (0:55 on CD-track)
|----------------------------------------------------------|
|----------------------------------------------------------|
|----------------------------------------------------------|
|-77777777-55-77-88-10-10----------------------------------|
|----------------------------------------------------------|
|----------------------------------------------------------|
						(8x)
riff B
|----------------------------------------------------------|
|----------------------------------------------------------|
|----------------------------------------------------------|
|-9-9p7h-------------------7-------------------------------|
|--------10p9h10--9-9--7-5---------------------------------|
|----------------------------------------------------------|

|----------------------------------------------------------|
|----------------------------------------------------------|
|----------------------------------------------------------|
|-9-9p7h---------------------------------------------------|
|--------10p9h10--9-9--7-5-4-------------------------------|
|----------------------------------------------------------|
						(4x)
riff C
|----------------------------------------------------------|
|----------------------------------------------------------|
|----------------------------------------------------------|
|----------------------------7-----------------------------|
|-9-9-7h9-10-10--9-9--7-5h7h-------------------------------|
|----------------------------------------------------------|

|----------------------------------------------------------|
|----------------------------------------------------------|
|----------------------------------------------------------|
|----------------------------------------------------------|
|-9-9--7h9-10-10--9-9--7-5-4-------------------------------|
|----------------------------------------------------------|
						(2x)
riff B
|----------------------------------------------------------|
|----------------------------------------------------------|
|----------------------------------------------------------|
|-9-9p7h-------------------7-------------------------------|
|--------10p9h10--9-9--7-5---------------------------------|
|----------------------------------------------------------|

|----------------------------------------------------------|
|----------------------------------------------------------|
|----------------------------------------------------------|
|-9-9p7h---------------------------------------------------|
|--------10p9h10--9-9--7-5-4-------------------------------|
|----------------------------------------------------------|
						(4x)
riff D
|----------------------------------------------------------|
|----------------------------------------------------------|
|----------------------------------------------------------|
|-77777777-55-77-88-10-10----------------------------------|
|----------------------------------------------------------|
|----------------------------------------------------------|
						(8x)

(2:30 on CD-track)

riff A
|----------------------------------------------------------|
|----------------------------------------------------------|
|----------------------------------------------------------|
|----------------------------------------------------------|
|-9--9-9--9/10-10-----9--9-9--7-5-4------------------------|
|-7--7-7--7/-8--8-----7--7-7--5-3-2------------------------|
						(4x)
riff B
|----------------------------------------------------------|
|----------------------------------------------------------|
|----------------------------------------------------------|
|-9-9p7h-------------------7-------------------------------|
|--------10p9h10--9-9--7-5---------------------------------|
|----------------------------------------------------------|

|----------------------------------------------------------|
|----------------------------------------------------------|
|----------------------------------------------------------|
|-9-9p7h---------------------------------------------------|
|--------10p9h10--9-9--7-5-4-------------------------------|
|----------------------------------------------------------|
						(4x)
riff C
|----------------------------------------------------------|
|----------------------------------------------------------|
|----------------------------------------------------------|
|----------------------------7-----------------------------|
|-9-9-7h9-10-10--9-9--7-5h7h-------------------------------|
|----------------------------------------------------------|

|----------------------------------------------------------|
|----------------------------------------------------------|
|----------------------------------------------------------|
|----------------------------------------------------------|
|-9-9--7h9-10-10--9-9--7-5-4-------------------------------|
|----------------------------------------------------------|
						(2x)
riff B
|----------------------------------------------------------|
|----------------------------------------------------------|
|----------------------------------------------------------|
|-9-9p7h-------------------7-------------------------------|
|--------10p9h10--9-9--7-5---------------------------------|
|----------------------------------------------------------|

|----------------------------------------------------------|
|----------------------------------------------------------|
|----------------------------------------------------------|
|-9-9p7h---------------------------------------------------|
|--------10p9h10--9-9--7-5-4-------------------------------|
|----------------------------------------------------------|
						(4x)
riff D
|----------------------------------------------------------|
|----------------------------------------------------------|
|----------------------------------------------------------|
|-77777777-55-77-88-10-10----------------------------------|
|----------------------------------------------------------|
|----------------------------------------------------------|
						(8x)

For more tabs from me,
goto: http://www.doomish.com/go/?r=Darkenelf

  Visit MetalTabs.com for more metal tablature

bottom separator

Contact Us | Privacy Policy | Disclaimer | Legal Notice
Copyright © 2001-2014 MetalTabs.com. All Rights Reserved.