top separator

Home

Forum

What's New

Submit a Tab

FAQ

Links

Contact Us

Link to Us

MetalTabs.com logo

Bands

0-9

A

B

C

D

E

F

G

H

I

J

K

L

M

N

O

P

Q

R

S

T

U

V

W

X

Y

Z

Search

What

Where
 

Cemetary - "By My Own Hand" Guitar Tab

Plain Text Version
More Cemetary Tabs

Hits: 2490
Rated: 5.00 out of 5 (1 vote)
Updated: 2003-06-14 08:55:22

 

Important note
This tab is available online because we obtained explicit permission from Cemetary or their label.


#----------------------------------PLEASE NOTE---------------------------------#
#This file is the author's own work and represents their interpretation of the #
#song. You may only use this file for private study, scholarship, or research. #
#Unless specified otherwise, this is NOT an official tab from the band members.#
#------------------------------------------------------------------------------#

  Visit MetalTabs.com for more metal tablature
  
Artist : Cemetary
Song   : By My Own Hand
Album  : Godless Beauty

transcribed by [xanathar] : xanathar@softhome.net

Tuning : Dropped D [DADGBe]


RIFF 1 (Intro & Verse)
  Guitar 1
e|----------------------------------------|
B|----------------------------------------|
G|----------------------------------------|
D|-0-----------------2--3---------------3-|
A|-0-----------------2--3---------------3-|
D|-0-----------------2--3---------------3-|
 |Guitar 2                                |
e|----------------------------------------|
B|----------------------------------------|
G|----------------------------------------|
D|---7\5-7~-7h8\5-7~-----7\5-7~-7h8\5-7~--|
A|----------------------------------------|
D|----------------------------------------|

  Guitar 1
e|-------------------------------------------|
B|-------------------------------------------|
G|-------------------------------------------|
D|-/7----------------5--3-------------3--2/3-|
A|-/7----------------5--3-------------3--2/3-|
D|-/7----------------5--3-------------3--2/3-|
 |Guitar 2                                   |
e|-------------------------------------------|
B|-------------------------------------------|
G|---9\7-9~-9h10\7-9~-----7\5-5~-5p4-5~------|
D|-------------------------------------------|
A|-------------------------------------------|
D|-------------------------------------------|

Play RIFF 1 x2 w/Lyrics


RIFF 2 (Pre-Chorus)
e|-------------------------------------------|
B|-------------------------------------------|
G|-------------------------------------------|
D|--7-------------------7-------------3--2/3-|
A|--7-------------------7-------------3--2/3-|
D|--7-------------------7-------------3--2/3-|

e|-------------------------------------------|
B|-------------------------------------------|
G|-------------------------------------------|
D|--7----------------7--7-------------3--2/3-|
A|--7----------------7--7-------------3--2/3-|
D|--7----------------7--7-------------3--2/3-|


RIFF 3 (Chorus)
  Guitar 1                                                           x4
e|--------------------------------------------------------------------|
B|--------------------------------------------------------------------|
G|--------------------------------------------------------------------|
D|-0----------------0----------------8----------------10------8-------|
A|-0----------------0----------------8----------------10------8-------|
D|-0----------------0----------------8----------------10------8-------|
 |Guitar 2                                                            |
e|--------------------------------------------------------------------|
B|--------------------------------------------------------------------|
G|--------------------------------------------------------------------|
D|--------10---------------10---------------10---------------10-------|
A|-8~-7h8----8-7h8--8~-7h8----8-7h8--8~-7h8----8-7h8--8~-7h8----8-7h8-|
D|--------------------------------------------------------------------|

Play RIFF 1 x3

Play RIFF 2

Play RIFF 3


RIFF 4 (Solo Rhythm)			 x2
e|----------------------------------------|
B|----------------------------------------|
G|----------------------------------------|
D|-0-----------------2--3---------------3-|
A|-0-----------------2--3---------------3-|
D|-0-----------------2--3---------------3-|

e|-------------------------------------------|
B|-------------------------------------------|
G|-------------------------------------------|
D|-/7----------------5--3-------------3--2/3-|
A|-/7----------------5--3-------------3--2/3-|
D|-/7----------------5--3-------------3--2/3-|


SOLO
e|-------13-------------------------------------------------------|
B|-13h15----15-13h15~~--------------------------------------------|
G|---------------------14h15-14~--12h14-12~-----------------------|
D|------------------------------------------10h12-12--12p10----10-|
A|----------------------------------------------------------12----|
D|----------------------------------------------------------------|

e|--------------------------------------|
B|--------------------------------------|
G|--------------------------------------|
D|--------------------------------------|
A|-12-10-8--------------10^-10^-10-8~~--|
D|---------12-10-12-10------------------|
                        ah  ah
e|----------------------------------------------------------------|
B|----------------------------------------------------------------|
G|----------------------------------------------------------------|
D|----15-------15-------15-------15/17-17/19-19/20-19~--22-20-19~-|
A|-15----17-15----17-15----17~------------------------------------|
D|----------------------------------------------------------------|

e|------------------------------------------|
B|------------------------------------------|
G|------------------------------------------|
D|-15h17-17~~----17p15-15~~-----15p14-14~~--|
A|------------------------------------------|
D|------------------------------------------|

Play RIFF 2

Play RIFF 3


RIFF 5 (Ending)
  Guitar 1
e|--------|
B|--------|
G|--------|
D|-0------|
A|-0------|
D|-0------|
 |Guitar 2|
e|--------|
B|--------|
G|--------|
D|--------|
A|-5------|
D|--------|



notation:
^   =  bend [ ^ = half, ^^ = whole, etc. ]
^r  =  bend and release
x   =  mute with fret-hand
*   =  mute with palm-hand
X\\ =  pick slide
h   =  hammer-on
p   =  pull-off
~   =  vibrato
t   =  tap-on
/   =  slide up
\   =  slide down
h.  =  harmonics
ah  =  artificial harmonic
(9) =  ghost note
tm  =  trem picking
tr  =  trill

  Visit MetalTabs.com for more metal tablature

bottom separator

Contact Us | Privacy Policy | Disclaimer | Legal Notice
Copyright © 2001-2014 MetalTabs.com. All Rights Reserved.