top separator

Home

Forum

What's New

Submit a Tab

FAQ

Links

Contact Us

Link to Us

MuSpy.com

MetalTabs.com logo

Bands

0-9

A

B

C

D

E

F

G

H

I

J

K

L

M

N

O

P

Q

R

S

T

U

V

W

X

Y

Z

Search

What

Where
 

Crowbar - "Nothing" Guitar Tab

Plain Text Version
More Crowbar Tabs

Hits: 6303
Rated: 4.33 out of 5 (3 votes)
Updated: 2003-06-14 08:54:38

 

By:

Father Death

sendpm.gif

email.gif

Important note
This tab is available online because we obtained explicit permission from Crowbar or their label.


#----------------------------------PLEASE NOTE---------------------------------#
#This file is the author's own work and represents their interpretation of the #
#song. You may only use this file for private study, scholarship, or research. #
#Unless specified otherwise, this is NOT an official tab from the band members.#
#------------------------------------------------------------------------------#

  Visit MetalTabs.com for more metal tablature
  
Band:  CROWBAR
Album: Broken Glass
Song:  Nothing

Transcribed by:	Chris Humeniuk
Email:  father_death_666@hotmail.com

Tuning:	2.5 steps down (B)

Keys:
  b  - bend
  r  - release bend
  h  - hammer on
  p  - pull off
 / \ - slide


RIFF A:

|-------------------------------------------------|
|-------------------------------------------------|
|--------------------------------------10-10------|
|-2--------------2--2------2-----------10-10------|
|-2--------------2--2------2------------8--8------|
|-0--------------0--0------0------------8--8------| 4x


RIFF B:
(Gtr 1)
|-------------------------------------|
|-------------------------------------|
|-------------------------------------|
|-2----------------2--2---------------|
|-2----------------2--2---------------|
|-0----------------0--0---------------| 4x

(Gtr 2)
|-------------------------------------|
|-------------------------------------|
|-------------------------------------|
|-----------7br~~--------5br~~--------|
|--------------------------------/7~--|
|-------------------------------------| 4x


CHORUS:

|-----------------------------------------
|-----------------------------------------
|--------------------------------10-10----
|-9h10-9p7-7h9------------7--7---10-10----
|--------------10--9\7-7--7--7----8--8----
|-------------------------5--5----8--8----

 -----------------------------------------|
 -----------------------------------------|
 -------------------------7--7---10-10----|
 -9h10-9p7-7h9------------7--7---10-10----|
 --------------10--9\7-7--5--5----8--8----|
 -------------------------5--5----8--8----| 2x


RIFF A - 2x


RIFF B - 4x


CHORUS - 2x


RIFF C:
(Gtr 1)
|-------------------------------------|
|-------------------------------------|
|-------------------------------------|
|-2----------------2--2---------------|
|-2----------------2--2---------------|
|-0----------------0--0---------------| 4x

(Gtr 2)
|-------------------------------------|
|-------------------------------------|
|--------9br~-------------------------|
|-9brbr~------7br~~-------5br~~-------|
|--------------------------------/7~--|
|-------------------------------------| 4x


CHORUS - 2x before fade out begins

  Visit MetalTabs.com for more metal tablature

bottom separator

Contact Us | Privacy Policy | Disclaimer | Legal Notice
Copyright © 2001-2014 MetalTabs.com. All Rights Reserved.