top separator

Home

Forum

What's New

Submit a Tab

FAQ

Links

Contact Us

Link to Us

MuSpy.com

MetalTabs.com logo

Bands

0-9

A

B

C

D

E

F

G

H

I

J

K

L

M

N

O

P

Q

R

S

T

U

V

W

X

Y

Z

Search

What

Where
 

Darkseed - "self pity sick" Guitar Tab

Plain Text Version
More Darkseed Tabs

Hits: 4872
Rated: 4.00 out of 5 (4 votes)
Updated: 2003-06-14 08:45:25

 

By:

Darkenelf

sendpm.gif

email.gif

Important note
This tab is available online because we obtained explicit permission from Darkseed or their label.


#----------------------------------PLEASE NOTE---------------------------------#
#This file is the author's own work and represents their interpretation of the #
#song. You may only use this file for private study, scholarship, or research. #
#Unless specified otherwise, this is NOT an official tab from the band members.#
#------------------------------------------------------------------------------#

  Visit MetalTabs.com for more metal tablature
  
Band: DarkSeed
Album: Spellcraft
Song: Self Pity Sick
Tabbed by: Martijn Wietsma
Tab Date: 16-05-2003
Email: dalvanian@yahoo.com

Standard E tuning

riff A
|---------------------------------------------------------------|
|---------------------------------------------------------------|
|---------------------------------------------------------------|
|----7-9-7-----------------------------------9~---9~------------|
|-9---------9-10-9---9-7-5--7-5/9--7-5-4--------5----7----------|
|----------------------------------------5/7--------------------|
						(2x)
riff B
|---------------------------------------------------------------|
|---------------------------------------------------------------|
|---------------------------------------------------------------|
|---------------------------------------------------------------|
|-9--7--5--5-5--5-7---------------------------------------------|
|---------------------------------------------------------------|
						(4x)
riff C
|---------------------------------------------------------------|
|---------------------------------------------------------------|
|---------------------------------------------------------------|
|---------------------------------------------------------------|
|------9-----9---9-------7-----7---7-------5-----5---5----------|
|-7777-7-777-7-7-7--5555-5-555-5-5-5--3333-3-333-3-3-3----------|
  xxxx   xxx   x    xxxx   xxx   x    xxxx   xxx   x
|---------------------------------------------------------------|
|---------------------------------------------------------------|
|---------------------------------------------------------------|
|-222-2---------------------------------------------------------|
|-222-2--444-4-4------------------------------------------------|
|-000-0--222-2-2------------------------------------------------|
  xxx    xxx
|---------------------------------------------------------------|
|---------------------------------------------------------------|
|---------------------------------------------------------------|
|---------------------------------------------------------------|
|------9-----9---9-------7-----7---7-------5-----5---5----------|
|-7777-7-777-7-7-7--5555-5-555-5-5-5--3333-3-333-3-3-3----------|
  xxxx   xxx   x    xxxx   xxx   x    xxxx   xxx   x

|---------------------------------------------------------------|
|---------------------------------------------------------------|
|---------------------------------------------------------------|
|----2-----------2----------------------------------------------|
|-4--2--4--5--4--2--4-------------------------------------------|
|-2--0--2--3--2--0--2-------------------------------------------|
						(2x)
riff B
|---------------------------------------------------------------|
|---------------------------------------------------------------|
|---------------------------------------------------------------|
|---------------------------------------------------------------|
|-9--7--5--5-5--5-7---------------------------------------------|
|---------------------------------------------------------------|
						(4x)
riff C
|---------------------------------------------------------------|
|---------------------------------------------------------------|
|---------------------------------------------------------------|
|---------------------------------------------------------------|
|------9-----9---9-------7-----7---7-------5-----5---5----------|
|-7777-7-777-7-7-7--5555-5-555-5-5-5--3333-3-333-3-3-3----------|
  xxxx   xxx   x    xxxx   xxx   x    xxxx   xxx   x
|---------------------------------------------------------------|
|---------------------------------------------------------------|
|---------------------------------------------------------------|
|-222-2---------------------------------------------------------|
|-222-2--444-4-4------------------------------------------------|
|-000-0--222-2-2------------------------------------------------|
  xxx    xxx
|---------------------------------------------------------------|
|---------------------------------------------------------------|
|---------------------------------------------------------------|
|---------------------------------------------------------------|
|------9-----9---9-------7-----7---7-------5-----5---5----------|
|-7777-7-777-7-7-7--5555-5-555-5-5-5--3333-3-333-3-3-3----------|
  xxxx   xxx   x    xxxx   xxx   x    xxxx   xxx   x

|---------------------------------------------------------------|
|---------------------------------------------------------------|
|---------------------------------------------------------------|
|----2-----------2----------------------------------------------|
|-4--2--4--5--4--2--4-------------------------------------------|
|-2--0--2--3--2--0--2-------------------------------------------|
						(2x)
riff D
|---------------------------------------------------------------|
|---------------------------------------------------------------|
|---------------------------------------------------------------|
|----------4-4--4------------7--7-7-----------------------------|
|-4-4--4---2-2--2---4-4--4---5--5-5--7-7------------------------|
|-2-2--2------------2-2--2-----------5-5------------------------|
						(6x)
riff E
|---------------------------------------------------------------|
|---------------------------------------------------------------|
|---------------------------------------------------------------|
|-4-4--7-7--5~--9-7--(9-7)--------------------------------------|
|-2-2--5-5------------------------------------------------------|
|---------------------------------------------------------------|
						(4x)
riff D
|---------------------------------------------------------------|
|---------------------------------------------------------------|
|---------------------------------------------------------------|
|----------4-4--4------------7--7-7-----------------------------|
|-4-4--4---2-2--2---4-4--4---5--5-5--7-7------------------------|
|-2-2--2------------2-2--2-----------5-5------------------------|
						(6x)
riff E
|---------------------------------------------------------------|
|---------------------------------------------------------------|
|---------------------------------------------------------------|
|-4-4--7-7--5~--9-7--(9-7)--------------------------------------|
|-2-2--5-5------------------------------------------------------|
|---------------------------------------------------------------|
						(2x)
end solo is missing!

  Visit MetalTabs.com for more metal tablature

bottom separator

Contact Us | Privacy Policy | Disclaimer | Legal Notice
Copyright © 2001-2014 MetalTabs.com. All Rights Reserved.