top separator

Home

Forum

What's New

Submit a Tab

FAQ

Links

Contact Us

Link to Us

MetalTabs.com logo

Bands

0-9

A

B

C

D

E

F

G

H

I

J

K

L

M

N

O

P

Q

R

S

T

U

V

W

X

Y

Z

Search

What

Where
 

Katatonia - "Midwinter gates" Guitar Tab

Plain Text Version
More Katatonia Tabs

Hits: 6113
Rated: 3.00 out of 5 (2 votes)
Updated: 2001-05-17 10:16:29

 

Important note
This tab is available online because we obtained explicit permission from Katatonia or their label.


#----------------------------------PLEASE NOTE---------------------------------#
#This file is the author's own work and represents their interpretation of the #
#song. You may only use this file for private study, scholarship, or research. #
#Unless specified otherwise, this is NOT an official tab from the band members.#
#------------------------------------------------------------------------------#

  Visit MetalTabs.com for more metal tablature
  
Artist:  Katatonia
Album:   Jhva Elohim Meth...the Revival
Track:   Midwinter Gates

Tabbed by : John M
            citastro@hotmail.com
	    marym@iol.ie

6th Feb 2000


**** Tune Guitar so first note of song corresponds to A ****

Tuning is regular -E-A-D-G-B-E-

Guitar 1 is clean electric, Gtr 2 is nylon strin acoustic.

++++++++++++++++++++++++++++++++++++++++++++++++++++++++++++++++++++++++

                            from  0:03 to 0:20

Part 1

Gtr 1:

      -----------------------------------------------------------
      -----------------------------------------------------------
      -----------------------------------------------------------
      --0----0----0-----0---0-etc--------------------------------
      -7----7----7-----7-7-7-------------------------------------
      5--5-7--7-8--8-10---5--------------------------------------

After 0:20 Gtr 1 changes to this:

      --------------------------------------------------------------
      ---------0----------------------------------------------------
      ---0----9-9--0---0--------------------------------------------
      -10-10-7----9-9-5-5-------------------------------------------
      8----------7---5----twice, and then back into the above piece-
      --------------------------------------------------------------

and end on this
      -----------------------------------------------------------
      -----------------------------------------------------------
      -----------------------------------------------------------
      --0---------------------------------------------------------
      -5-5---------------------------------------------------------
      3---0-------------------------------------------------------

Gtr 2:
      ---------------------------------------------------------------
      ---------------------------------------------------------------
      -----------------7/-9-9h10h9-----------------------------------
      10-10-9--7-10-9-10----------10-10-9--10-9--7-----5h7-7-10-9--7-
      ------10---------------------------10----10-5-6-7----------10--
      ---------------------------------------------------------------

      12-10-------------------------------------12-12-10-10-12---
      -----13-12h13h12--------------------12-12^-----------------
      ----------------12-12-14-14 twice-14-----------------------
      -----------------------------------------------------------
      -----------------------------------------------------------
      -----------------------------------------------------------


      12-10--------10--12----12\-10-8-7--------------------------
      -----13-12-13--13------------------------------------------
      -----------------------------------------------------------
      -----------------------------------------------------------
      -----------------------------------------------------------
      -----------------------------------------------------------

++++++++++++++++++++++++++++++++++++++++++++++++++++++++++++++++++++++++++++++
Have fun!
+++++++++++++++++++++++++++++++++++++++++++++++++++++++++++++++++++++++++++++

  Visit MetalTabs.com for more metal tablature

bottom separator

Contact Us | Privacy Policy | Disclaimer | Legal Notice
Copyright © 2001-2014 MetalTabs.com. All Rights Reserved.