top separator

Home

Forum

What's New

Submit a Tab

FAQ

Links

Contact Us

Link to Us

MetalTabs.com logo

Bands

0-9

A

B

C

D

E

F

G

H

I

J

K

L

M

N

O

P

Q

R

S

T

U

V

W

X

Y

Z

Search

What

Where
 

Crowbar - "(Can't) Turn Away From Dying" Guitar Tab

Plain Text Version
More Crowbar Tabs

Hits: 5122
Updated: 2003-06-14 08:29:35

 

By:

Father Death

sendpm.gif

email.gif

Important note
This tab is available online because we obtained explicit permission from Crowbar or their label.


#----------------------------------PLEASE NOTE---------------------------------#
#This file is the author's own work and represents their interpretation of the #
#song. You may only use this file for private study, scholarship, or research. #
#Unless specified otherwise, this is NOT an official tab from the band members.#
#------------------------------------------------------------------------------#

  Visit MetalTabs.com for more metal tablature
  
Band:  CROWBAR
Album: Broken Glass
Song:  (Can't) Turn Away From Dying

Transcribed by:	Chris Humeniuk
Email:  father_death_666@hotmail.com

Tuning:	2.5 steps down (B)

Keys:
 / \ - slide
 ___ - palm mute
  h  - hammer on
  b  - bend
  r  - release bend


INTRO:
(Gtr 1)
|---------------------------------------|
|---------------------------------------|
|---------------------------------------|
|-2-------------------2-----------------|
|-2-------------------2-----------------|
|-0-------------------0-----------------|

(Gtr 2)
|---------------------------------------|
|---------------------------------------|
|---------------------------------------|
|-9-------------------9-----------------|
|-7-------------------7-----------------|
|-0-------------------0-----------------|


RIFF A:

|-------------------------------------------------
|-------------------------------------------------
|-------------------------------------------5--5--
|-2--2-2--3-3-5/7\5-5-5-3/5-2--2-2--9-9\7---3--3--
|-2--2-2--3-3-5/7\5-5-5-3/5-2--2-2--7-7\5---3--3--
|-0--0-0--1-1-3/5\3-3-3-1/3-0--0-0--------0-------
                                          _

 ---------------------------------------------------|
 ---------------------------------------------------|
 ---------------------------------------------------|
 -2--2-2--3-3-5/7\5-5-5-3/5-2--2-2----7/9-7-5/6\5-4-|
 -2--2-2--3-3-5/7\5-5-5-3/5-2--2-2----5/7-5-3/4\3-2-|
 -0--0-0--1-1-3/5\3-3-3-1/3-0--0-0--0---------------| 2x
                                    _


VERSE:

|----------------------------------------|
|----------------------------------------|
|----------------------------------------|
|-2--------------------------------------|
|-2--------------------------------------|
|-0--------------------------------------|


CHORUS:

|----------------------------------------------------------------
|----------------------------------------------------------------
|----------------------------------------------------------------
|-7--7-7-7-7-7-7-7-7-5-5-5-5-5-5-2----2h3-2--2-3-3-3h5-5-5-5-3h5-
|-5--5-5-5-5-5-5-5-5-3-3-3-3-3-3-2-------------------------------
|-5--5-5-5-5-5-5-5-5-3-3---------0--0----------------------------
     ___________________________

 ----------------------------------------------------------------
 ----------------------------------------------------------------
 ----------------------------------------------------------------
 -7--7-7-7-7-7-7-7-7-5-5-5-5-5-5-2----2h3-2--2-3-3-3h5-5-5-5-3h5-
 -5--5-5-5-5-5-5-5-5-3-3-3-3-3-3-2-------------------------------
 -5--5-5-5-5-5-5-5-5-3-3---------0--0----------------------------
     ___________________________

 -------------------------------------------------------------
 -------------------------------------------------------------
 -----------------------5--5----------------------------------
 -2----2h3-2--2-9-9\7---3--3--2----2h3-2--2-3-3-3h5-5-5-5-3h5-
 -2-------------7-7\5---3--3--2-------------------------------
 -0--0----------------0-------0--0----------------------------
                      _

 -------------------------------|
 -------------------------------|
 -------------------------------|
 -2----2h3-2--2---7/9-7-5/6\5-4-|
 -2---------------5/7-5-3/4\3-2-|
 -0--0----------0---------------|
                _


RIFF B:

|-----------------------------------------------------|
|-----------------------------------------------------|
|-----------------------------------------------------|
|-----------------------------------------------------|
|-----------------------------------------------------|
|-0--0-7br-5-5~-0-0-1-3--1-3-0--0-7br-5-5~-0-0-1-3--1-| 2x


VERSE


CHORUS


RIFF B - 6x


RIFF C:

|---------------------------------------------------------------
|---------------------------------------------------------------
|---------------------------------------------------------------
|---------------------------------------------------------------
|---------------------------------------------------------------
|-0--0-5h8-7~~---------------5h7-0--0-5h8-7~~-------------------

 ---------------------------------------------------------------|
 ---------------------------------------------------------------|
 ---------------------------------------------------------------|
 ---------------------------------------------------------------|
 ---------------------------------------------------------------|
 -0--0-5h8-7~~---------------5h7-0--0-5h8-7~~-------------7\----|


RIFF D:

|---------------------------------------------------------------
|---------------------------------------------------------------
|---------------------------------------------------------------
|-2----7/10-9--9-9-9-9-9-9-9-7/9-2----7/10-9--9-9-9-9-9-9-9-9-9-
|-2----7/10-9--9-9-9-9-9-9-9-7/9-2----7/10-9--9-9-9-9-9-9-9-9-9-
|-0--0-5/-8-7--7-7-7-7-7-7-7-5/7-0--0-5-/8-7--7-7-7-7-7-7-7-7-7-
               _____________                  _________________

 -------------------------------------------------------------|
 -------------------------------------------------------------|
 -------------------------------------------------------------|
 -2----7/10-9--9-9-9-9-9-9-9-7/9-2----7/10-9--9-9-9-9-9-9-----|
 -2----7/10-9--9-9-9-9-9-9-9-7/9-2----7/10-9--9-9-9-9-9-9-----|
 -0--0-5/-8-7--7-7-7-7-7-7-7-5/7-0--0-5-/8-7--7-7-7-7-7-7-7\--|
               _____________                  ___________


OUTRO: (fades out)
(Gtr 1)
|---------------------------------------------------------------
|---------------------------------------------------------------
|---------------------------------------------------------------
|---------------------------------------------------------------
|---------------------------------------------------------------
|-0--0-2h5-3~~---------------1h3-0--0-2h5-3~~-------------------

(Gtr 1)
 ---------------------------------------------------------------|
 ---------------------------------------------------------------|
 ---------------------------------------------------------------|
 ---------------------------------------------------------------|
 ---------------------------------------------------------------|
 -0--0-2h5-3~~---------------1h3-0--0-2h5-3~~------------7\-----|


NOTE - It sounds like there is bells and chimes in the background,
       althoguh Gtr 2 may be strumming the following as well:

(Gtr 2)
|----------------------------------|
|----------8------8------8---------|
|----------7------7------7---------|
|----------5------5------5---------|
|----------------------------------|
|----------------------------------|

  Visit MetalTabs.com for more metal tablature

bottom separator

Contact Us | Privacy Policy | Disclaimer | Legal Notice
Copyright © 2001-2014 MetalTabs.com. All Rights Reserved.