top separator

Home

Forum

What's New

Submit a Tab

FAQ

Links

Contact Us

Link to Us

MetalTabs.com logo

Bands

0-9

A

B

C

D

E

F

G

H

I

J

K

L

M

N

O

P

Q

R

S

T

U

V

W

X

Y

Z

Search

What

Where
 

Crowbar - "Above, Below And Inbetween" Guitar Tab

Plain Text Version
More Crowbar Tabs

Hits: 4528
Updated: 2003-06-14 08:28:36

 

By:

Father Death

sendpm.gif

email.gif

Important note
This tab is available online because we obtained explicit permission from Crowbar or their label.


#----------------------------------PLEASE NOTE---------------------------------#
#This file is the author's own work and represents their interpretation of the #
#song. You may only use this file for private study, scholarship, or research. #
#Unless specified otherwise, this is NOT an official tab from the band members.#
#------------------------------------------------------------------------------#

  Visit MetalTabs.com for more metal tablature
  
Band:  CROWBAR
Album: Broken Glass
Song:  Above, Below and in Between

Transcribed by:	Chris Humeniuk
Email:  father_death_666@hotmail.com

Tuning:	2.5 steps down (B)

Keys:
  b  - bend
 ___ - palm mute
 / \ - slide


INTRO:

|-------------------------------------------------------------------
|-------------------------------------------------------------------
|---------------------------------------------------------------10\-
|-------------------2--2--2-------------------------------------10\-
|-7--------5--------2--2--2--2b--------------2--7--------5-------8\-
|---7--6-7---7-6-3--0--0--0----------0-0-0-0-0----7--6-7---7-6-3----
                                     _______

 --------------------------------------------|
 --------------------------------------------|
 --------------------------------------------|
 --------------------------------------------|
 -----2--2b--------------2--7--------5-------|
 -0-0-0----------0-0-0-0-0----7--6-7---7-6-3-|
  ___            _______


VERSE:

|-------------------------------------------------
|-------------------------------------------------
|---------------------------------------------10\-
|-2--2--2-------------------------------------10\-
|-2--2--2--2b--------------2--7--------5-------8\-
|-0--0--0----------0-0-0-0-0----7--6-7---7-6-3----
                   _______

 -----------------------------------------------
 -----------------------------------------------
 -------------------------------------------10\-
 -------------------------------------------10\-
 -----2--2b--------------2--7--------5-------8\-
 -0-0-0----------0-0-0-0-0----7--6-7---7-6-3----
  ___            _______

 -----------------------------------------------
 -----------------------------------------------
 -------------------------------------------10\-
 -------------------------------------------10\-
 -----2--2b--------------2--7--------5-------8\-
 -0-0-0----------0-0-0-0-0----7--6-7---7-6-3----
  ___            _______

 --------------------------------------------|
 --------------------------------------------|
 --------------------------------------------|
 --------------------------------------------|
 -----2--2b--------------2--7--------5-------|
 -0-0-0----------0-0-0-0-0----7--6-7---7-6-3-|
  ___            _______


CHORUS:

|---------------------------------------
|---------------------------------------
|---------------------------------------
|---9--8--6--5------------9--8--6--5--4-
|---7--6--6--5--4-5-4-2-2-7--6--6--5--4-
|-0-7--6--4--3--2-3-2-0-0-7--6--4--3--2-
  _             _________

 --------------------------------------------|
 --------------------------------------------|
 --------------------------------------------|
 ---9--8--6--5------------9--8--6--5--3------|
 ---7--6--6--5--4-5-4-2-2-7--6--6--5--3------|
 -0-7--6--4--3--2-3-2-0-0-7--6--4--3--1------|
  _             _________


VERSE


CHORUS:

|---------------------------------------|
|---------------------------------------|
|---------------------------------------|
|---9--8--6--5------------9--8--6--5--4-|
|---7--6--6--5--4-5-4-2-2-7--6--6--5--4-|
|-0-7--6--4--3--2-3-2-0-0-7--6--4--3--2-| 3x
  _             _________

|--------------------------------------------|
|--------------------------------------------|
|--------------------------------------------|
|---9--8--6--5------------9--8--6--5--3------|
|---7--6--6--5--4-5-4-2-2-7--6--6--5--3------|
|-0-7--6--4--3--2-3-2-0-0-7--6--4--3--1------|
  _             _________


INTERLUDE:

|----------------------------------------------|
|----------------------------------------------|
|----------------------------------------------|
|----------------------------------------------|
|--------------------------2--7--------5-------|
|-0-0-0-0-7b--7-\--0-0-0-0-0----7--6-7---7-6-3-|
  _______          _______

|-------------------------------------------------|
|-------------------------------------------------|
|-10\---------------------------------------------|
|-10\---------------------------------------------|
|--8\-----2-------------------2--7--------5-------|
|-----0-0-0--7b--7-\--0-0-0-0-0----7--6-7---7-6-3-| 3x
      ___             _______


OUTRO:

|-----------------------------------------|
|-----------------------------------------|
|-----------------------------------------|
|-----9--8--6--5------------9--8--6--5--4-|
|-----7--6--6--5--4-5-4-2-2-7--6--6--5--4-|
|-0-0-7--6--4--3--2-3-2-0-0-7--6--4--3--2-|
  ___             _________

|----------------------------------------|
|----------------------------------------|
|----------------------------------------|
|-------8--6--5------------9--8--6--5--4-|
|-2-2---6--6--5--4-5-4-2-2-7--6--6--5--4-|
|-0-0---6--4--3--2-3-2-0-0-7--6--4--3--2-| 3x
  ___            _________

|-----------------------------------------------------------|
|-----------------------------------------------------------|
|-----------------------------------------------------------|
|-------8--6--5------------9--8--6--5--3-----------2--2--2--|
|-2-2---6--6--5--4-5-4-2-2-7--6--6--5--3-----------2--2--2--|
|-0-0---6--4--3--2-3-2-0-0-7--6--4--3--1------7-\--0--0--0--|
  ___            _________

  Visit MetalTabs.com for more metal tablature

bottom separator

Contact Us | Privacy Policy | Disclaimer | Legal Notice
Copyright © 2001-2014 MetalTabs.com. All Rights Reserved.