top separator

Home

Forum

What's New

Submit a Tab

FAQ

Links

Contact Us

Link to Us

MetalTabs.com logo

Bands

0-9

A

B

C

D

E

F

G

H

I

J

K

L

M

N

O

P

Q

R

S

T

U

V

W

X

Y

Z

Search

What

Where
 

Crowbar - "Like Broken Glass" Guitar Tab

Plain Text Version
More Crowbar Tabs

Hits: 7349
Rated: 3.67 out of 5 (3 votes)
Updated: 2003-06-14 08:27:44

 

By:

Father Death

sendpm.gif

email.gif

Important note
This tab is available online because we obtained explicit permission from Crowbar or their label.


#----------------------------------PLEASE NOTE---------------------------------#
#This file is the author's own work and represents their interpretation of the #
#song. You may only use this file for private study, scholarship, or research. #
#Unless specified otherwise, this is NOT an official tab from the band members.#
#------------------------------------------------------------------------------#

  Visit MetalTabs.com for more metal tablature
  
Band:  CROWBAR
Album: Broken Glass
Song:  Like Broken Glass

Transcribed by:	Chris Humeniuk
Email:  father_death_666@hotmail.com

Tuning:	2.5 steps down (B)

Keys:
 ___ - palm mute
  b  - bend
  r  - release bend
  h  - hammer on
  p  - pull off
 / \ - slide


INTRO/VERSE:

|-------------------------------------------------------
|-------------------------------------------------------
|-------------------------------------------------------
|-------10--10--------10--10--------10--10--------------
|--------8---8---------8---8---------8---8--------------
|-0-0-0---------0-0-0---------0-0-0---------0-0-0-0-0-0-
  _____         _____         _____         ___________

 -----------------------------------------------------|
 -----------------------------------------------------|
 -----------------------------------------------------|
 -------10--10--------10--10--------10--10------------|
 --------8---8---------8---8---------8---8------------|
 -0-0-0---------0-0-0---------0-0-0---------6br-1h2p1-| 4x
  _____         _____         _____

|-------------------------------------------------------------------|
|-------------------------------------------------------------------|
|-------------------------------------------------------------------|
|-------10--10--------10--10--------10--10--------------------------|
|--------8---8---------8---8---------8---8--------------------------|
|-0-0-0---------0-0-0---------0-0-0---------0-0-0-0-0-0-0-0-0-0-0-0-|
  _____         _____         _____         _______________________


CHORUS:

|-------------------------------------------------|
|-------------------------------------------------|
|-------------------------------------------------|
|-2--3--7--6--5--7--6------5--4--5--4--3--2--3--4-|
|-2--3--7--6--5--5--4------5--4--3--2--1--2--3--4-|
|-0--1--5--4--3--------0-0-3--2-----------0--1--2-| 2x
                       ___


VERSE:

|-------------------------------------------------------
|-------------------------------------------------------
|-------------------------------------------------------
|-------10--10--------10--10--------10--10--------------
|--------8---8---------8---8---------8---8--------------
|-0-0-0---------0-0-0---------0-0-0---------0-0-0-0-0-0-
  _____         _____         _____         ___________

 -----------------------------------------------------|
 -----------------------------------------------------|
 -----------------------------------------------------|
 -------10--10--------10--10--------10--10------------|
 --------8---8---------8---8---------8---8------------|
 -0-0-0---------0-0-0---------0-0-0---------6br-1h2p1-| 2x
  _____         _____         _____

|-------------------------------------------------------------------|
|-------------------------------------------------------------------|
|-------------------------------------------------------------------|
|-------10--10--------10--10--------10--10--------------------------|
|--------8---8---------8---8---------8---8--------------------------|
|-0-0-0---------0-0-0---------0-0-0---------0-0-0-0-0-0-0-0-0-0-0-0-|
  _____         _____         _____         _______________________


CHORUS - 4x


INTERLUDE:
(Gtr 1)
|-------------------------------------------------------------------
|-------------------------------------------------------------------
|-------------------------------------------------------------------
|-------------------------------------------------------------------
|-----/5-7-6-----8~--------------------/5-7-6-----8~----------------
|-000--------000----00-6br-6-5br-5-000--------000----00-6br-6-5br-5-
  ___        ___    __             ___        ___    __

(Gtr 2)
|-------------------------------------------------------------------
|-------------------------------------------------------------------
|-------------------------------------------------------------------
|-2--------------------------------2-2-2-2--------------------------
|-2--------------------------------2-2-2-2--------------------------
|-0--------------------------------0-0-0-0--------------------------
                                   _____

(Gtr 1)
 ---------------------------------------------------------------|
 ---------------------------------------------------------------|
 ---------------------------------------------------------------|
 -------------------------------------------------------4---3---|
 -----/5-7-6-----8~--------------------/5-7-6-----8~----4---3---|
 -000--------000----00-6br-6-5br-5-000--------000----00-2---1---|
  ___        ___    __             ___        ___    __

(Gtr 2)
 ---------------------------------------------------------------|
 ---------------------------------------------------------------|
 ---------------------------------------------------------------|
 -2-2-2----------------------------2-2------------------4---3---|
 -2-2-2----------------------------2-2------------------4---3---|
 -0-0-0----------------------------0-0------------------2---1---|
  _____                            ___

(Gtr 1 & 2)
|----------------------------------|
|----------------------------------|
|----------------------------------|
|----------------------------------|
|-----/5-7-6-----8~----------------|
|-000--------000----00-6br-6-5br-5-| 3x
  ___        ___    __

|------------------------------|
|------------------------------|
|------------------------------|
|----------------------4---3---|
|-----/5-7-6-----8~----4---3---|
|-000--------000----00-2---1---|
  ___        ___    __


CHORUS - 4x


OUTRO:
(fades out)
|--------------------------------------------------------------------------|
|--------------------------------------------------------------------------|
|--------------------------------------------------------------------------|
|-------10--10--------10--10-----------------10--10--------10--------------|
|--------8---8---------8---8--------3---------8---8---------8--9-10-9-10-9-|
|-0-0-0---------0-0-0---------0-0-0-1--0-0-0---------0-0-0-----7--8-7--8-7-|
  _____         _____         _____    _____         _____     ___________

  Visit MetalTabs.com for more metal tablature

bottom separator

Contact Us | Privacy Policy | Disclaimer | Legal Notice
Copyright © 2001-2014 MetalTabs.com. All Rights Reserved.