top separator

Home

Forum

What's New

Submit a Tab

FAQ

Links

Contact Us

Link to Us

MetalTabs.com logo

Bands

0-9

A

B

C

D

E

F

G

H

I

J

K

L

M

N

O

P

Q

R

S

T

U

V

W

X

Y

Z

Search

What

Where
 

Life Hates Me - "Erase" Guitar Tab

Plain Text Version
More Life Hates Me Tabs

Hits: 2509
Updated: 2003-07-30 13:39:05

 

By:

metaltabs28

sendpm.gif

email.gif

Important note
We did our best to reach Life Hates Me and ask for their permission to publish this tab. Unfortunately they did not respond to our requests or we could not find a way to contact them. This tab is available online until Life Hates Me tells us to take it down.


#----------------------------------PLEASE NOTE---------------------------------#
#This file is the author's own work and represents their interpretation of the #
#song. You may only use this file for private study, scholarship, or research. #
#Unless specified otherwise, this is NOT an official tab from the band members.#
#------------------------------------------------------------------------------#

  Visit MetalTabs.com for more metal tablature
  
Band: Life Hates Me
Album: Imperfections
Song: Erase

Copyright (c) Drowned Out Music, 1999/2000
Version 2.0 - 5/24/03

Transcribed By: metaltabs28
Email: metaltabs28@yahoo.com

/  - slide up to
\  - slide down to
h  - hammer on
p  - pull off
*  -let note ring or see comment

Tuning:
1 1/2 Steps down Drop D (B F# B E G# C#)
or Standard, but I think the above tuning sounds best, especially
during the chorus.

Here you go, the good tab of the song.

If you need the song, you can go on mp3.com and find their artist
page and you can preview the tracks off their cd, or you can go to
www.lifehatesme.com and you can get their cd for just $10.

I found my copy at the music trader in the local band section, but
I live in San Diego, so it might not be in all music traders.
=======
Riff A (gtr.1)
|-----------------------------------------
|-----------------------------------------
|--6--4h6-7--6-6/7-4---6--4h6-7--6-6/7-4--
|-----------------------------------------
|-----------------------------------------
|-----------------------------------------

 -----------------------------------------------------------------------------|
 -----------------------------------------------------------------------------|
 -6-4h6-7-6/7-4--6-7-6/5\6*--4-3-0-1-3-4--6-4h6-7-6/7-4--6-7-6/5\6*-4-3-0-1-3-|
 -----------------------------------------------------------------------------|
 -----------------------------------------------------------------------------|
 -----------------------------------------------------------------------------|

(gtr.2)
|---------------------------|-----------------------------------|
|---------------------------|-----------------------------------|
|---------4-----4-----------|--------4-----4--------6----6------|
|---4--4-----4------(4)-5*--|--4--4-----4------4--4----4--------|
|---------------------------|-----------------------------------|
|---------------------------|-----------------------------------|
      ^do this 3x^              ^then this once^

   ^^repeat this gtr.2 sequence untill Riff B begins^^

======
Riff B (gtr.1)
|--------------------------------|-------------------------------|
|--------------------------------|-------------------------------|
|-------4-----4---------6-----6--|------4-----4---------6-----6--|
|-4--4-----4------4--4-----4-----|-4--4-----4------4--4-----4----|
|--------------------------------|-------------------------------|
|--------------------------------|-------------------------------|

|--------------------------------|-------------------------------|
|--------------------------------|-------------------------------|
|-------4-----4---------6-----6--|------4-----4---------6-----6--|
|-4--4-----4------4--4-----4-----|-4--4-----4------4--4-----4----|
|--------------------------------|-------------------------------|
|--------------------------------|-------------------------------|


  (gtr.2)
|----------------------------------------------------------------|
|----------------------------------------------------------------|
|--------------------------------------6--4h6-7*-----------------|
|----------------------------------------------------------------|
|----------------------------------------------------------------|
|----------------------------------------------------------------|

======
Riff C x2
|---------------------------------------------------|
|---------------------------------------------------|
|--------4-----4--------------------4-----4---------|
|--4--4-----4-----4--5*-------4--4-----4-----4--5*--|
|---------------------------------------------------|
|---------------------------------------------------|

======
Riff D (gtr.1)
|--0-----------------0-----------------|
|--0-----------------0-----------------|
|--2----9--2---------2----9--2---------|
|--2----------4------0----------4------|
|----------------4-----------------4---|
|--------------------------------------|
                     ^*here starts gtr.2
*(gtr.2)
|-------------------------------------------------------------|
|-------------------------------------------------------------|
|-------------------------------------------------------------|
|-------------------------------------------------------------|
|----------5-5-5---------3-3-3-----------5-5-5---------3-3-3--|
|--4-4-4-4-------4-4-4-4---------4-4-4-4-------4-4-4-4--------|

======
Riff E (gtr.1) x3                 e2        e3             e4
|--------------------------------|--------|--------0------|-0----------|
|--------------------------------|--------|----------2----|---2--------|
|------3------3----1-------------|------1-|-----1------2--|-----2------|
|----3------3-----2-----rest-----|----2---|----2----------|------------|
|--2------2------2---------------|--2-----|--2------------|------------|
|--------------------------------|--------|---------------|------------|

*don't play e4 for the first two times*
*third time leave out e2*

(gtr.2) x3
|--------------------------------------------|
|--------------------------------------------|
|----------0-1-1p0-------0-1-------0-1-1p0---|
|------5-------------5---------5-------------|
|--------------------------------------------|
|--------------------------------------------|

(gtr.3) x4
|-------------------------------------------------------------|
|-------------------------------------------------------------|
|-------------------------------------------------------------|
|-------------------------------------------------------------|
|----------6-6-6---------4-4-4-----------6-6-6---------4-4-4--|
|--4-4-4-4-------4-4-4-4---------4-4-4-4-------4-4-4-4--------|

^^repeat Riff E sequence for all guitars until Chorus 1^^
======
Chorus 1
|-----------------------------------------------------------------------------|
|-----------------------------------------------------------------------------|
|-----------------------------------------------------------------------------|
|-4-4-4-4--12-12-12--4-4-4-4--10-10-10--4-4-4-4--12-12-12--4-4-4-4--10-10-10--|
|-x-x-x-x---x--x--x--x-x-x-x---x--x--x--x-x-x-x---x--x--x--x-x-x-x---x--x--x--|
|-4-4-4-4--12-12-12--4-4-4-4--10-10-10--4-4-4-4--12-12-12--4-4-4-4--10-10-10--|

|-----------------------------------------------------------------------------|
|-----------------------------------------------------------------------------|
|-----------------------------------------------------------------------------|
|-4-4-4-4--12-12-12--4-4-4-4--10-10-10--4-4-4-4--12-12-12--4-4-4-4--10-10-10--|
|-x-x-x-x---x--x--x--x-x-x-x---x--x--x--x-x-x-x---x--x--x--x-x-x-x---x--x--x--|
|-4-4-4-4--12-12-12--4-4-4-4--10-10-10--4-4-4-4--12-12-12--4-4-4-4--10-10-10--|

======
Riff F (gtr.1)
|-------------------------------------------------------------|
|-------------------------------------------------------------|
|-------------------------------------------------------------|
|-------------------------------------------------------------|
|----------6-6-6---------4-4-4-----------6-6-6---------4-4-4--|
|--4-4-4-4-------4-4-4-4---------4-4-4-4-------4-4-4-4--------|

(gtr.2)
|--------------------------------------------|
|--------------------------------------------|
|----------0-1-1p0-------0-1-------0-1-1p0---|
|------5-------------5---------5-------------|
|--------------------------------------------|
|--------------------------------------------|
^^repeat Riff F sequence for both guitars until Chorus 2^^

======
Chorus 2 x2
|-----------------------------------------------------------------------------|
|-----------------------------------------------------------------------------|
|-----------------------------------------------------------------------------|
|-4-4-4-4--12-12-12--4-4-4-4--10-10-10--4-4-4-4--12-12-12--4-4-4-4--10-10-10--|
|-x-x-x-x---x--x--x--x-x-x-x---x--x--x--x-x-x-x---x--x--x--x-x-x-x---x--x--x--|
|-4-4-4-4--12-12-12--4-4-4-4--10-10-10--4-4-4-4--12-12-12--4-4-4-4--10-10-10--|

|-----------------------------------------------------------------------------|
|-----------------------------------------------------------------------------|
|-----------------------------------------------------------------------------|
|-4-4-4-4--12-12-12--4-4-4-4--10-10-10--4-4-4-4--12-12-12--4-4-4-4--10-10-10--|
|-x-x-x-x---x--x--x--x-x-x-x---x--x--x--x-x-x-x---x--x--x--x-x-x-x---x--x--x--|
|-4-4-4-4--12-12-12--4-4-4-4--10-10-10--4-4-4-4--12-12-12--4-4-4-4--10-10-10--|

|------------------------------------------------------|
|------------------------------------------------------|
|------------------------------------------------------|
|--4-4-4-4--12--4-4-4-4--10--4-4-4-4--12--4-4-4-4--10--|
|--x-x-x-x---x--x-x-x-x---x--x-x-x-x---x--x-x-x-x---x--|
|--4-4-4-4--12--4-4-4-4--10--4-4-4-4--12--4-4-4-4--10--|

|------------------------------------------------------|
|------------------------------------------------------|
|------------------------------------------------------|
|--4-4-4-4--12--4-4-4-4--10--4-4-4-4--12--4-4-4-4--10--|
|--x-x-x-x---x--x-x-x-x---x--x-x-x-x---x--x-x-x-x---x--|
|--4-4-4-4--12--4-4-4-4--10--4-4-4-4--12--4-4-4-4--10--|

======
Riff G (gtr.1) x2
|--------------------------------------------------------------------|
|--------------------------------------------------------------------|
|--------------------------------------------------------------------|
|--------------------------------------------------------------------|
|--4444444-5555555-4444444-5555555--4444444-5555555-4444444-5555555--|
|--------------------------------------------------------------------|
				    ^*here starts gtr.2
*(gtr.2)
|---------------------|
|---------------------|
|--6--4h6-7--6-6/7-4--|
|---------------------|
|---------------------|
|---------------------|

======
Bridge x2
|-----------------------------------------------|
|-----------------------------------------------|
|-----------------------------------------------|
|---------------111--111------------------------|
|---------------222--222--------------333--333--|
|--0-000-0-000--333--333--0-000-0-000-222--222--|

======
Fill
|-----------------------------------------|
|-----------------------------------------|
|--6--4h6-7--6-6/7-4---6--4h6-7--6-6/7-4--|
|-----------------------------------------|
|-----------------------------------------|
|-----------------------------------------|

======
Fill 2 x6
|-------------------------------------------------------------|
|-------------------------------------------------------------|
|-------------------------------------------------------------|
|-------------------------------------------------------------|
|----------6-6-6---------4-4-4-----------6-6-6---------4-4-4--|
|--4-4-4-4-------4-4-4-4---------4-4-4-4-------4-4-4-4--------|

======
Chorus 3
|-----------------------------------------------------------------------------|
|-----------------------------------------------------------------------------|
|-----------------------------------------------------------------------------|
|-4-4-4-4--12-12-12--4-4-4-4--10-10-10--4-4-4-4--12-12-12--4-4-4-4--10-10-10--|
|-x-x-x-x---x--x--x--x-x-x-x---x--x--x--x-x-x-x---x--x--x--x-x-x-x---x--x--x--|
|-4-4-4-4--12-12-12--4-4-4-4--10-10-10--4-4-4-4--12-12-12--4-4-4-4--10-10-10--|

|-----------------------------------------------------------------------------|
|-----------------------------------------------------------------------------|
|-----------------------------------------------------------------------------|
|-4-4-4-4--12-12-12--4-4-4-4--10-10-10--4-4-4-4--12-12-12--4-4-4-4--10-10-10--|
|-x-x-x-x---x--x--x--x-x-x-x---x--x--x--x-x-x-x---x--x--x--x-x-x-x---x--x--x--|
|-4-4-4-4--12-12-12--4-4-4-4--10-10-10--4-4-4-4--12-12-12--4-4-4-4--10-10-10--|



|------------------------------------------------------|
|------------------------------------------------------|
|------------------------------------------------------|
|--4-4-4-4--12--4-4-4-4--10--4-4-4-4--12--4-4-4-4--10--|
|--x-x-x-x---x--x-x-x-x---x--x-x-x-x---x--x-x-x-x---x--|
|--4-4-4-4--12--4-4-4-4--10--4-4-4-4--12--4-4-4-4--10--|

|------------------------------------------------------|
|------------------------------------------------------|
|------------------------------------------------------|
|--4-4-4-4--12--4-4-4-4--10--4-4-4-4--12--4-4-4-4--10--|
|--x-x-x-x---x--x-x-x-x---x--x-x-x-x---x--x-x-x-x---x--|
|--4-4-4-4--12--4-4-4-4--10--4-4-4-4--12--4-4-4-4--10--|

|---------------------------------------------------------------|
|---------------------------------------------------------------|
|---------------------------------------------------------------|
|--4--12--4--10--4--12--4--10--4--12--4--10--4--12--4--10---4*--|
|--x---x--x---x--x---x--x---x--x---x--x---x--x---x--x---x---4*--|
|--4--12--4--10--4--12--4--10--4--12--4--10--4--12--4--10---4*--|

--www.lifehatesme.com--

As always, any suggestions, comments, errors, or anything else always welcome
Email:metaltabs28@yahoo.com  AIM:metaltabs28  Web:http://hidinginvain.cjb.net

  Visit MetalTabs.com for more metal tablature

bottom separator

Contact Us | Privacy Policy | Disclaimer | Legal Notice
Copyright © 2001-2014 MetalTabs.com. All Rights Reserved.