top separator

Home

Forum

What's New

Submit a Tab

FAQ

Links

Contact Us

Link to Us

MuSpy.com

MetalTabs.com logo

Bands

0-9

A

B

C

D

E

F

G

H

I

J

K

L

M

N

O

P

Q

R

S

T

U

V

W

X

Y

Z

Search

What

Where
 

Whiplash - "Ressurection chair" Guitar Tab

Plain Text Version
More Whiplash Tabs

Hits: 2596
Updated: 2003-06-14 08:20:06

 

By:

Kramer

sendpm.gif

email.gif

Important note
We did our best to reach Whiplash and ask for their permission to publish this tab. Unfortunately they did not respond to our requests or we could not find a way to contact them. This tab is available online until Whiplash tells us to take it down.


#----------------------------------PLEASE NOTE---------------------------------#
#This file is the author's own work and represents their interpretation of the #
#song. You may only use this file for private study, scholarship, or research. #
#Unless specified otherwise, this is NOT an official tab from the band members.#
#------------------------------------------------------------------------------#

  Visit MetalTabs.com for more metal tablature
  
Whiplash "Resurrection Chair" from THRASHBACK (1998)

R.I.P. Tony Bono

Tabbed by Kramer
E-mail: Pantera9560@aol.com (Use "Whiplash tabs" as the subj.)

Riff 1 3x
D-444--7-0-6---444--7-0-6---444--7-0-6---7-7-7-7--7/9---
A-222--5-0-4---222--5-0-4---222--5-0-4---5-5-5-5--5/7---

Riff 1 ending
D-444--7-0-6---2-2-2-2-2-2-2--
A-222--5-0-4---0-0-0-0-0-0-0--

Riff 2 once
D---------------------------------------------------------2-----2-----2------------------
A-4--4-4-4-4-4-4-4-4-4-4-4-4-4-4-4-4-4-4-4-4-4-4-4-4-4-4--0--4--0--4--0--4--4-4-4-4-4-4-4
E-2--2-2-2-2-2-2-2-2-2-2-2-2-2-2-2-2-2-2-2-2-2-2-2-2-2-2-----2-----2-----2--2-2-2-2-2-2-2

D----------------------------------------4--2--------------------------------------------
A-4-4-4-4-4-4-4-4-4-4-4-4-4-4-4-4-4-4-4--------4--3--2--0--4--4-4-4-4-4-4-4-4-4-4-4-4-4-4
E-2-2-2-2-2-2-2-2-2-2-2-2-2-2-2-2-2-2-2--------------------2--2-2-2-2-2-2-2-2-2-2-2-2-2-2

D--------------------------2-----2-----2-------------------------------------------------
A-4-4-4-4-4-4-4-4-4-4-4-4--0--4--0--4--0--4--4-4-4-4-4-4-4-4-4-4-4-4-4-4-4-4-4-4-4-4-4-4-
E-2-2-2-2-2-2-2-2-2-2-2-2-----2-----2-----2--2-2-2-2-2-2-2-2-2-2-2-2-2-2-2-2-2-2-2-2-2-2-

D----------------------4---
A-4-4-4-4--0--2--3--4------
E-2-2-2-2------------------

Riff 3 twice
D-4--4--4--4--4--3/4--5--5--5--5--5--------------------------------------------------2--4
A-2--2--2--2--2--1/2--3--3--3--3--3--------------------------------------0--2--3--4------
E------------------------------------333--6-3-5--333--6-3-5--333--6-3-5------------------

Riff 1 once + ending
Riff 2 once
Riff 3 twice

Riff 3 ending
D-------------------------------------------------4--
A-------------------------------------0--2--3--4-----
E-333--6-3-5--333--6-3-5--333--6-3-5-----------------

Riff 4 twice
D-4---4---4-----7--6--7------------------------3---5---3----------------------3---5---3--
A-2---2---2-----5--4--5------5--5--5--5--5--5--1---3---1----5--5--5--5--5--5--1---3---1--
E----------------------------3--3--3--3--3--3---------------3--3--3--3--3--3-------------

Then first part of riff 4

Riff 4 ending twice
D-------------------3---5---3----------------------3---5---3--
A-5--5--5--5--5--5--1---3---1----3--3--3--3--3--3--1---3---1--
E-3--3--3--3--3--3---------------1--1--1--1--1--1-------------

Then a quick solo...

Riff 5 twice
G-------------2-------------2---------------2----------------------------
D-4-4-4-4-4-4-0-4-4-4-4-4-4-0--4-4--6--4-4--0----------------------------
A-2-2-2-2-2-2---2-2-2-2-2-2----2-2--4--2-2------5--4--2--0--5--4--2--0---

Riff 5 ending
D-4--4--4--4--4--4---5--5--5--5--5--5---
A-2--2--2--2--2--2---3--3--3--3--3--3---

Riff 2 once
Riff 3 3x
Riff 5 3x then strum B5 chord

  Visit MetalTabs.com for more metal tablature

bottom separator

Contact Us | Privacy Policy | Disclaimer | Legal Notice
Copyright © 2001-2014 MetalTabs.com. All Rights Reserved.