top separator

Home

Forum

FAQ

Contact Us

Link to Us

MetalTabs.com logo

Bands

0-9

A

B

C

D

E

F

G

H

I

J

K

L

M

N

O

P

Q

R

S

T

U

V

W

X

Y

Z

Kataklysm - "In Shadows And Dust" Guitar Tab

Plain Text Version
More Kataklysm Tabs

Hits: 6786
Rated: 2.69 out of 5 (13 votes)
Updated: 2003-06-14 08:06:06


#----------------------------------PLEASE NOTE---------------------------------#
#This file is the author's own work and represents their interpretation of the #
#song. You may only use this file for private study, scholarship, or research. #
#Unless specified otherwise, this is NOT an official tab from the band members.#
#------------------------------------------------------------------------------#

  Visit MetalTabs.com for more metal tablature
  
KATAKLYSM - IN SHODOWS AND DUST
FROM THE ALBUM "IN SHADOWS AND DUST" 2002

	Transcribed by The Dillonator- noseall@hotmail.com

	Tuning B (Every string down 2.5 steps)

	.  -  palm mute
	\  -  slide down
	h  -  hammer
	p  -  pull off
	/  -  slide up
	~  -  vibrato
	b  -  bend
	"  -  tremolo pick

A
4x
|---------------------------------------------------|
|---------------------------------------------------|
|---------------------------------------------------|
|---------------------------------------------------|
|---2-------3------3----------5-/-6-\-5-------------|
|---0--0-0- 1--0-0-1--0-0-0-0-3-/-4-\-3-------------|
       . .     . .   . . . .

B
4x
|---------------------------------------------------|
|---------------------------------------------------|
|---------------------------------------------------|
|---------------------------------------------------|
|---2-------3-------3--------5-/-6-\-5--------------|
|---0---0"--1---0"--1---0"---3-/-4-\-3--------------|
        .       .       .
C
8x
|---------------------------------------------------|
|---------------------------------------------------|
|---------------------------------------------------|
|---------------------------------------------------|
|---3-------5-------5-----------5-4-3-2-------------|
|---1--0-0--3--0-0--3--0-0-0-0--3-2-1-0-------------|
       . .     . .    . . . .  . . . .
D
4x
|---------------------------------------------------|
|---------------------------------------------------|
|---------------------------------------------------|
|---------------------------------------------------|
|--------3--4-4-4--------4-6-6--4-6-6-6-------------|
|---1"---1--2-2-2---1"---2-4-4--2-4-4-4-------------|


E
4x
|---------------------------------------------------|
|---------------------------------------------------|
|---------------------------------------------------|
|---------------------------------------------------|
|---3-4-3-4-3--4-6-5-4------------------------------|
|---1-2-1-2-1--2-4-3-2------------------------------|


F
4x
|---------------------------------------------------|
|---------------------------------------------------|
|---------------------------------------------------|
|---------------------------------------------------|
|---33-34-33-34-33-3-4-6-4-3------------------------|
|---11-12-11-12-11-1-2-4-2-1------------------------|
     . .   . .   . .    .  .

G
11x
|---------------------------------------------------|
|---------------------------------------------------|
|---------------------------------------------------|
|---------------------------------------------------|
|---3-4---7-----------------------------------------|
|---1-2---5-----------------------------------------|


Song Structure
A
B
C
D
E
F
B
D
G

Iím not sure about riff D, but it sounds pretty close.

  Visit MetalTabs.com for more metal tablature

bottom separator

Contact Us | Privacy Policy | Disclaimer
Copyright © 2001-2014 MetalTabs.com. All Rights Reserved.