top separator

Home

Forum

What's New

Submit a Tab

FAQ

Links

Contact Us

Link to Us

MetalTabs.com logo

Bands

0-9

A

B

C

D

E

F

G

H

I

J

K

L

M

N

O

P

Q

R

S

T

U

V

W

X

Y

Z

Search

What

Where
 

Diecast - "Exacting My Revenge" Guitar Tab

Plain Text Version
More Diecast Tabs

Hits: 4065
Rated: 5.00 out of 5 (1 vote)
Updated: 2003-06-14 07:47:57

 

By:

Father Death

sendpm.gif

email.gif

Important note
This tab is available online because we obtained explicit permission from Diecast or their label.


#----------------------------------PLEASE NOTE---------------------------------#
#This file is the author's own work and represents their interpretation of the #
#song. You may only use this file for private study, scholarship, or research. #
#Unless specified otherwise, this is NOT an official tab from the band members.#
#------------------------------------------------------------------------------#

  Visit MetalTabs.com for more metal tablature
  
Band: DIECAST
Album:Day of Reckoning
Song: Exacting my Revenge

Transcribed by:	Chris Humeniuk
Email: father_death_666@hotmail.com

Tuning:
strings 1-5 - 1 step down
string    6 - 2 steps down

Keys:
 ___ - palm mute
 / \ - slide
  p  - pull off
  h  - hammer on
  "  - tremelo pick
  x  - mute


INTRO:
(Gtr 1)
|----------------------------------------------------|
|----------------------------------------------------|
|----------------------------------------------------|
|----------------------------------------------------|
|----------------------------------------------------|
|-0-0-0-0-0-0-0-0-0-0-0-0-0-0-0-0-0-0-0-0-0-0-0-0...-|
  _______________________________________________

Gtr 2 picks up along 6th string hiting natural harmonix for 5 or 6 seconds...

(Gtr 2)
|---------------------------------------------------------------------------
|---------------------------------------------------------------------------
|---------------------------------------------------------------------------
|-7------7---5--7--8\7------3---5--8--5/7------7---5--7--8\7------3---5--8--
|-5------5---3--5--6\5------1---3--6--3/5------5---3--5--6\5------1---3--6--
|---------------------------------------------------------------------------

 ----------------------------------------------------------------------------|
 ----------------------------------------------------------------------------|
 ----------------------------------------------------------------------------|
 -5/7------7---5--7--8\7------3---5--8--5/7------7---5--7--8\7------3--------|
 -3/5------5---3--5--6\5------1---3--6--3/5------5---3--5--6\5------1------1-|
 -----------------------------------------------------------------------1111-|
                                                                        ___

RIFF A:

|-------------------------------------------------------|
|-------------------------------------------------------|
|-------------------------------------------------------|
|------0---------5-0-1-0-3-2------0---------3-5-6-6-5-3-|
|------0---------3-0-1-0-3-2------0---------1-3-4-6-5-3-|
|-0000-0-0-0-000-5-0-1-0-3-2-0000-0-0-0-000-3-5-6-6-5-3-|
  ____   _______       __________   _______       _____

|-------------------------------------------------------|
|-------------------------------------------------------|
|-------------------------------------------------------|
|----------0-----5-0-1-0-3-2------0---------3-5-6-6-5-3-|
|----------0-----3-0-1-0-3-2------0---------1-3-4-6-5-3-|
|-00000000-0-----5-0-1-0-3-2-0000-0-0-0-000-3-5-6-6-5-3-| 3x
   _______             __________   _______       _____


RIFF B:

|-------------------------------------------------------
|-------------------------------------------------------
|-------------------------------------------------------
|-0-------------3--6------------------------------------
|-0-------------1--4------0-------------6-6-6-6-5-5-----
|-0-0-0-0-0-0-0-3--6--5p3-0-0-0-0-0-0-0-6-6-6-6-5-5-3h5-
    ___________             _______________________

 -------------------------------------------------------|
 -------------------------------------------------------|
 -------------------------------------------------------|
 -0-------------3--6------------------------------------|
 -0-------------1--4------0-------------6-6-6-6-5-5-5---|
 -0-0-0-0-0-0-0-3--6--5p3-0-0-0-0-0-0-0-6-6-6-6-5-5-5---| 2x
    ___________             _________________________


CHORUS:

|---------------------------------------------------
|-3---------------------------3---------------------
|-2---------------------------2---------------------
|-0------1--4-----------------0---1--4--------------
|-0------1--2------5h7-5\3h5--0---1--2------2-2-2-2-
|-0------1--4-----------------0---1--4------0-0-0-0-
                                            _______

 ------------------------------------------------------------------|
 -3---------------------------3------------------------------------|
 -2---------------------------2------------------------------------|
 -0------1--4-----------------0---1--4-----------------------------|
 -0------1--2------5h7-5\3h5--0---1--2------2-2-2-2--2-2-2-2--2-2--|
 -0------1--4-----------------0---1--4------0-0-0-0--0-0-0-0--0-0--|
                                            _____________________

(Gtr 3 played in background throughout both chorus')
|-10"----------------------------------------------|
|--x-----------------------------------------------|
|--7"----------------------------------------------|
|--------------------------------------------------|
|--------------------------------------------------|
|--------------------------------------------------|


RIFF A:


FILL:

|-------------------------------------------|
|-------------------------------------------|
|-------------------------------------------|
|-0-------0-------0-------------------------|
|-0-------0-------0-------5---5---5-5-xxxxx-|
|-0----00-0----00-0----00---0---0-----xxxxx-|
       __      __      __   _   _


RIFF C:

|-----------------------------------------|
|-----------------------------------------|
|-----------------------------------------|
|-----------------------------------------|
|-5--5-5-5-5-5--5--5-5-xx-----------8-6-0-|
|----------------------xx-6--8--10--------| 3x

|-----------------------------------------------|
|-----------------------------------------------|
|-----------------------------------------------|
|-------------------------6--8--10--------------|
|-5--5-5-5-5-5--5--5-5-xx-6--8--10--8-8-6-6-0-0-|
|----------------------xx-6--8--10--------------|
                                    ___________

|------------------------------------------------------------------|
|------------------------------------------------------------------|
|------------------------------------------------------------------|
|------------------------------------------------------------------|
|------------------------------------------------------8-8-6-6-0-0-|
|-0-0-0-0-0-0-0-0-0-0-0-0-0-0-0-0-6-6-6-8-8-8-10-10-10-------------| 3x
  ________________________________________________________________

|-------------------------------------------------------|
|-------------------------------------------------------|
|-------------------------------------------------------|
|---------------------------------6--8--10--------------|
|---------------------------------6--8--10--8-8-6-6-0-0-|
|-0-0-0-0-0-0-0-0-0-0-0-0-0-0-0-0-6--8--10--------------|
  ________________________________          ___________


RIFF D:

|------------------------------------------------------------------|
|------------------------------------------------------------------|
|------------------------------------------------------------------|
|-----------------3--4--6-4--6--7------------------3--5--4-3--0--1-|
|-0--0--0-0--0--0-3--4--6-4--6--7--0--0--0-0--0--0-1--3--4-3--0--1-|
|-0--0--0-0--0--0-3--4--6-4--6--7--0--0--0-0--0--0-3--5--4-3--0--1-| 4x
  _______________                  _______________


CHORUS:

|---------------------------------------------------|
|-3---------------------------3---------------------|
|-2---------------------------2---------------------|
|-0------1--4-----------------0---1--4--------------|
|-0------1--2------5h7-5\3h5--0---1--2------2-2-2-2-|
|-0------1--4-----------------0---1--4------0-0-0-0-| 2x
                                            _______


OUTRO:

|-----------------------------------------------------------------
|-----------------------------------------------------------------
|-----------------------------------------------------------------
|-----------------------------------------------------------------
|-0-0-0-0-0-0-0-0-0-0-0-0-1-1-1-1-2-2-2-2-2-2-2-2-2-2-2-2-5h7-5\3-
|-0-0-0-0-0-0-0-0-0-0-0-0-1-1-1-1-4-4-4-4-4-4-4-4-4-4-4-4---------
  _______________________________________________________

 -----------------------------------------------------------------
 -----------------------------------------------------------------
 -----------------------------------------------------------------
 -----------------------------------------------------------------
 -------------------------1-1-1-1-2-2-2-2-2-2-2-2-2-2-2-2-5h7-5\3-
 -000-000-000-000-000-000-1-1-1-1-4-4-4-4-4-4-4-4-4-4-4-4---------
  _______________________________________________________

 -----------------------------------------------------------------
 -----------------------------------------------------------------
 -----------------------------------------------------------------
 -----------------------------------------------------------------
 -0-0-0-0-0-0-0-0-0-0-0-0-1-1-1-1-2-2-2-2-2-2-2-2-2-2-2-2-5h7-5\3-
 -0-0-0-0-0-0-0-0-0-0-0-0-1-1-1-1-4-4-4-4-4-4-4-4-4-4-4-4---------
  _______________________________________________________

 ----------------------------------------------------------------------------|
 ----------------------------------------------------------------------------|
 ----------------------------------------------------------------------------|
 -------------------------------------------------------------------0--------|
 -------------------------1-1-1-1-2-2-2-2-2-2-2-2-2-2-2-2-5h7-5\3h5-0--------|
 -000-000-000-000-000-000-1-1-1-1-4-4-4-4-4-4-4-4-4-4-4-4-----------0--------|
  _______________________________________________________           _________

  Visit MetalTabs.com for more metal tablature

bottom separator

Contact Us | Privacy Policy | Disclaimer | Legal Notice
Copyright © 2001-2014 MetalTabs.com. All Rights Reserved.