top separator

Home

Forum

What's New

Submit a Tab

FAQ

Links

Contact Us

Link to Us

MetalTabs.com logo

Bands

0-9

A

B

C

D

E

F

G

H

I

J

K

L

M

N

O

P

Q

R

S

T

U

V

W

X

Y

Z

Search

What

Where
 

Katatonia - "Inside the fall" Guitar Tab

Plain Text Version
More Katatonia Tabs

Hits: 5476
Updated: 2001-05-17 10:09:40

 

Important note
This tab is available online because we obtained explicit permission from Katatonia or their label.


#----------------------------------PLEASE NOTE---------------------------------#
#This file is the author's own work and represents their interpretation of the #
#song. You may only use this file for private study, scholarship, or research. #
#Unless specified otherwise, this is NOT an official tab from the band members.#
#------------------------------------------------------------------------------#

  Visit MetalTabs.com for more metal tablature
  
Artist:  Katatonia
Album:   Sounds of Decay
Track:   Inside the Fall

Tabbed by : John M
            citastro@hotmail.com
	    marym@iol.ie

6th Feb 2000

This is another great song from '97's 'Sounds of Decay' mcd


**** Tune down Guitar so first note of song corresponds to F#  ****

Tuning is regular -E-A-D-G-B-E-

++++++++++++++++++++++++++++++++++++++++++++++++++++++++++++++++++++++++

Part 1 			0:00 to 0:33

Gtr 1 is rhy, gtr 2 is lead:

Gtr 1:
      -----------------------------------------------------------
      -----------------------------------------------------------
      -----------------------------------------------------------
      444--22222-222-44---77-------------------------------------
      444--22222-000-22/--55-------------------------------------
      222--00000-------------------------------------------------

Gtr 2:
      -----------------------------------------------------------
      -----------------------------------------------------------
      -999999999\-7767-6-7--999999999\-7767-6-7------------------
      -----------------------------------------------------------
      -----------------------------------------------------------
      -----------------------------------------------------------

+++++++++++++++++++++++++++++++++++++++++++++++++++++++++++++++++++++++++

Part 2                  0:34 to 1:01

Gtr 1:

      -----------------------------------------------------------
      -----------------------------------------------------------
      -----------------------------------------------------------
      7-7-77\-6---------------2---7-7-77\-6----------------------
      5-5-55\-4-7/8-7-7-77----2---5-5-55\-4-7/8-7-7-77-----etc..-
      ----------5/6-5-5-55-8--0-------------5/6-5-5-55-8---------

Gtr 2:
      -----------------------------------------------------------
      ---10-----10-9---------------------------------------------
      -10--10-10----10-9----9------------------------------------
      ------------------10----9h-10-h9---------------------------
      ------------------------------10---------------------------
      -----------------------------------------------------------

++++++++++++++++++++++++++++++++++++++++++++++++++++++++++++++++++++++++++

Interlude:
This is a short break in drums and has guitars only from 1:01 to 1:08.
There are several layers of guitars (three at least) for the next
sections, after this interlude... However the two parts during this
8 sec break can be played like this:

Gtr 1:

      -----------------------------------------------------------
      -----------------------------------------------------------
      12-12-12-12-12-12-12-12-12-12-12-12-12-12-12---------------
      10-10-10-10-10-10-10-10-10-10-10-10-10-10-10---------------
      -----------------------------------------------------------
      -----------------------------------------------------------
++++++++++++++++++++++++++++++++++++++++++++++++++++++++++++++++++++++++++

Part 3:      1:08 to 2:04

This harmony section has three or four guitar parts, one rhythm (gtr 1) and
the others are 'leads', here's a fairly close guess:

Gtr 1:

      --------------------------------------------------------------
      --------------------------------------------------------------
      ----------------------------4444444--------7777-555555555555--
      55554444--5555555555--4444--2222222---9999-7777-555555555555--
      33332222--3333333333--2222--2222222---7777-5555-333333333333--
      ----------------------------0000000---0000--------------------


      -------------------------------------------------------------------
      ------------------------------------------------------------------
      ------4444444-----------------------------------------------------
      4444--2222222-play twice --9999-7777-7777777777777-555555555555555
      2222--2222222--------------7777-5555-7777777777777-555555555555555
      ------0000000--------------0000------5555555555555-333333333333333



      -----------------------------------------------------------
      -----------------------------------------------------------
      -----------------------------------------------------------
      7777777777777-3333333333333333-----------------------------
      7777777777777-3333333333333333-----and repeat...-----------
      5555555555555-1111111111111111-----------------------------


Gtr 2: (Here individual notes are repaeatedly played as appropriate, so i
don't have to type hem in over and over again.....!!)

      ----------------------------------------------------------------------------
      ----------------------------------------------------------------------------
      ----------------------------------------------------------------------------
      10-10-10-999999999-10-10-10-99999999--14-14-14--12-12-12-14-14-14-10-10-10--
      ----------------------------------------------------------------------------
      ----------------------------------------------------------------------------

Gtr 3:


      -----------------------------------------------------------
      -----------------------------------------------------------
       9--7--------------------5--4-5----------------------------
      10--9--9--play twice...--7--5-7-5---play twice...----------
      -0-----7-----------------0----0-7--------------------------
      -------0------------------------0--------------------------

+++++++++++++++++++++++++++++++++++++++++++++++++++++++++++++++++++++++++++++++++++

Part 4:  runs from 2:05 to 2:33, and has only one (individual) gtr part:




      -------------------
      -------------------
      -------------------  play this 4 times and then dead stop.
      5-8-7-------5------
      3-6-5-8-5-8-3-2----
      ------6-3-6---4----
+++++++++++++++++++++++++++++++++++++++++++++++++++++++++++++++++++++++++++++++++++

Part 5 starts after the dead stop, at 2:35,  and begins with the lead guitar gtr 2,
playing this:

Gtr 2

      -----------------------------------------------------------
      -------------------------999999-10-10----------------------
      99999999-10-10-10-10-8888----------------------------------
      -----------------------------------------------------------
      -----------------------------------------------------------
      -----------------------------------------------------------
Carry on playing that piece above until 3:25 when the lead gtr starts playing what it
played in Part 1 of the song.
Meanwhile, the rhythm (gtr 1) under Gtr 2(above) is like this:


Gtr 1:

      -----------------------------------------------------------
      -----------------------------------------------------------
      ------------------444444-----------------------------------
      99999999999988888855555577777777---------------------------
      77777777888866666677777777777777----etc...-----------------
      00000000000000000000000000000000---------------------------

+++++++++++++++++++++++++++++++++++++++++++++++++++++++++++++++++++++++++++++++++++++

Then song goes into Part 1 again, to Part 2, and then to part 6 below:

Part 6:  from 4:33 to 5:13

Gtr 1:
      -----------------------------------------------------------
      -----------------------------------------------------------
      2-2---------2--------------2-2-------2---------------------
      2-2--2-3-2--2--------2-3-2-2-2-2-3-2-2---------------------
      0-0---------0-5-2-33-------0-0-------0-5-2-33--------------
      --------------3-0-11-------------------3-0-11--------------

Gtr 2:
      -----------------------------------------------------------
      -----------------------------------------------------------
      ---------------------5-7-4----7h-4h5h4-2---etc...----------
      -----------------------------------------------------------
      -----------------------------------------------------------
      -----------------------------------------------------------

+++++++++++++++++++++++++++++++++++++++++++++++++++++++++++++++++++++++++++++++++++++

Finally the song goes into part 7, at 5:13 till the end:

Part 7:

Gtr 1: (clean)

      --------4----------4-----------------3---------3-----------
      -----------------------------------------------------------
      ---------------------------------5-5-------5-5-------------
      ---6--4-------6--4-------------5--5------5--5--------------
      -6---2-4----6---2-4-----------3-3---3---3-3---3------------
      4-4--------4-4---------------------------------------------

Gtr 2: (distorted)

      -----------------------------------------------------------
      -9------12-11--9---9------12-11--9-------------------------
      --8-9-8------11-----8-9-8------11--------------------------
      -----------------------------------------------------------
      -----------------------------------------------------------
      -----------------------------------------------------------


      -----------------------------------------------------------
      -8------11-10--8--8------11-10--8 etc,...------------------
      --7-8-7------10----7-8-7------10---------------------------
      -----------------------------------------------------------
      -----------------------------------------------------------
      -----------------------------------------------------------

  Visit MetalTabs.com for more metal tablature

bottom separator

Contact Us | Privacy Policy | Disclaimer | Legal Notice
Copyright © 2001-2014 MetalTabs.com. All Rights Reserved.