top separator

Home

Forum

What's New

Submit a Tab

FAQ

Links

Contact Us

Link to Us

MuSpy.com

MetalTabs.com logo

Bands

0-9

A

B

C

D

E

F

G

H

I

J

K

L

M

N

O

P

Q

R

S

T

U

V

W

X

Y

Z

Search

What

Where
 

Life Hates Me - "Clone" Guitar Tab

Plain Text Version
More Life Hates Me Tabs

Hits: 2545
Updated: 2003-06-14 07:14:04

 

By:

metaltabs28

sendpm.gif

email.gif

Important note
We did our best to reach Life Hates Me and ask for their permission to publish this tab. Unfortunately they did not respond to our requests or we could not find a way to contact them. This tab is available online until Life Hates Me tells us to take it down.


#----------------------------------PLEASE NOTE---------------------------------#
#This file is the author's own work and represents their interpretation of the #
#song. You may only use this file for private study, scholarship, or research. #
#Unless specified otherwise, this is NOT an official tab from the band members.#
#------------------------------------------------------------------------------#

  Visit MetalTabs.com for more metal tablature
  
Band: Life Hates Me
Song: Clone
Album: Imperfections
Transcribed by: metaltabs28@yahoo.com
Notes and Tuning: I tuned the low E string down two whole
steps down to a C. (This part is probably played by bass
but since I don't have one I'm improvising w/ my six string)

Riff A
e----------------------------------------------------------
B----------------------------------------------------------
G----------------------------------------------------------
D----------------------------------------------------------
A----------------------------------------------------------
C-----0---12---10--12-----0---12---10--12------------------

*riff A plays twice before joined by riff B*

Riff B
e----------------------------------------------------------------
B----------------------------------------------------------------
G----------------------------------------------------------------
D-------7-----6---------7-----6---------7----6-------7---9--9--6-
A----------------------------------------------------------------
C---0--------------0----------------0------------0---------------

*both riffs A and B play until riff C begins*

Riff C
e----------------------------------------------------------
B----------------------------------------------------------
G----------------------------------------------------------
D----------------------------------------------------------
A----------------------------------------------------------
C---0-0--888--0-0--8888--0-0--888--0-0--8888--0-0--777-----
				     c1
e-----------------------------------|----------------------
B-----------------------------------|----------------------
G-----------------------------------|----------------------
D-----------------------------------|----------------------
A-----------------------------------|----------------------
C---0-0--7777--0-0-777--0-0-7777----|--0--0--8---0--0--7---

*riff c1 not played as a second ending until 4:15 and 6:33*

Riff D
e-------------------------------------------------------------
B-------------------------------------------------------------
G-------------------------------------------------------------
D----7-----6---------7-----6---------7----6-------7---9--9--6-
A-------------------------------------------------------------
C-------------------------------------------------------------

Riff E (played from 5:28-5:57)
e----------------------------------------------------------
B----------------------------------------------------------
G-----------unknown--as--of--right--now--------------------
D----------------but--soon--to--come-----------------------
A----------------------------------------------------------
C----------------------------------------------------------

Order of Riffs from Beginning to End:

Riff A   0:18-1:13
     B   0:38-1:15
     C   1:16-2:10
     D   2:11-2:49
     A   2:46-3:02
     D   3:04-3:34
     C   3:38-4:14
     c1  4:15-4:21
     A   4:24-4:41
     B   4:42-5:19
     E   5:28-5:57
     C   5:58-6:33
     c1  6:33-6:40
*feedback until 6:46*

  Visit MetalTabs.com for more metal tablature

bottom separator

Contact Us | Privacy Policy | Disclaimer | Legal Notice
Copyright © 2001-2014 MetalTabs.com. All Rights Reserved.