top separator

Home

Forum

What's New

Submit a Tab

FAQ

Links

Contact Us

Link to Us

MuSpy.com

MetalTabs.com logo

Bands

0-9

A

B

C

D

E

F

G

H

I

J

K

L

M

N

O

P

Q

R

S

T

U

V

W

X

Y

Z

Search

What

Where
 

Darkthrone - "Under A Funeral Moon" Guitar Tab

Plain Text Version
More Darkthrone Tabs

Hits: 4185
Rated: 2.80 out of 5 (5 votes)
Updated: 2003-06-14 06:58:58

 

Important note
This tab is available online because we obtained explicit permission from Darkthrone or their label.


#----------------------------------PLEASE NOTE---------------------------------#
#This file is the author's own work and represents their interpretation of the #
#song. You may only use this file for private study, scholarship, or research. #
#Unless specified otherwise, this is NOT an official tab from the band members.#
#------------------------------------------------------------------------------#

  Visit MetalTabs.com for more metal tablature
  
Band:  Darkthrone
Album: Under A Funeral Moon
Song:  Under A Funeral Moon

Copyright (c)  (Peaceville) (1993)
Version 1.0 - (5/5/2003)

Transcribed By: (Hugo Neves)
Email:          (Nihill_@hotmail.com)


.  - palm mute           /  - slide up to
\  - slide down to       ~  - vibrato
h  - hammer on           b  - Bend
p  - pull off            Suffixes for bend
t  - tap                 f  - full bend    h - half bend
ph - pinched harmonic    q  - quarter bend t - tap bend
*  - see comment         ^  - Hold bend    r release bend
x  - Stuccatto           ~  - vibrato bend
,  - slight palm mute    () - ghost note, sustained note
"  - tremolo note        <> - Trill

Tunning E A D G B E
1 Riff
|-------------------------------------------------------------------|
|-------------------------------------------------------------------|
|-----------88888888-99999999-88888888------------------------------|
|--22222222-88888888-99999999-88888888------------------------------|
|--22222222-66666666-77777777-66666666------------------------------|
|--00000000---------------------------------------------------------|

2 Riff
|---------------------|----------------------------------------------|
|---------------------|----------------------------------------------|
|--44444444444443333--|----------------------------------------------|
|--44444444444443333--|--5555555555554444----------------------------|
|--22222222222221111--|--5555555555554444----------------------------|
|---------------------|--3333333333332222----------------------------|

3 Riff
|-------------------------------------------------------------------|
|-------------------------------------------------------------------|
|-------------------------------------------------------------------|
|--7--------------7h8p7-----6h7p6-----7h8p7-------7------58-7h8p7
|---00000000000000-----000000-----000000-----000000--000000--------|
|-------------------------------------------------------------------|

4 Riff
|-----------------------|--------------------------------------------|
|-----------------------|--------------------------------------------|
|-----------------------|--------------------------------------------|
|--2-2--6-6--5-5--3-3---|--5-5--1010--8-8--6-6-----------------------|
|--2-2--6-6--5-5--3-3---|--5-5--1010--8-8--6-6-----------------------|
|--0-0--4-4--3-3--1-1---|--3-3---8-8--6-6--4-4-----------------------|

5 Riff
|-------------------------------------------------------------------|
|-------------------------------------------------------------------|
|-------------------------------------------------------------------|
|--2-2--3-3--2-2--3-2-5---------------------------------------------|
|--2-2--3-3--2-2--3-2-5---------------------------------------------|
|--0-0--1-1--0-0--1-0-3---------------------------------------------|

6 Riff (last part)
|--------------|----------------------------------------------------|
|1x------------|----------------------------------------------------|
|--------------|--55555555-666666666666-77777777--------------------|
|--5--4--8--9--|--55555555-666666666666-77777777--------------------|
|--5--4--8--9--|--33333333-444444444444-55555555--------------------|
|--3--2--6--7--|----------------------------------------------------|

  Visit MetalTabs.com for more metal tablature

bottom separator

Contact Us | Privacy Policy | Disclaimer | Legal Notice
Copyright © 2001-2014 MetalTabs.com. All Rights Reserved.