top separator

Home

Forum

What's New

Submit a Tab

FAQ

Links

Contact Us

Link to Us

MuSpy.com

MetalTabs.com logo

Bands

0-9

A

B

C

D

E

F

G

H

I

J

K

L

M

N

O

P

Q

R

S

T

U

V

W

X

Y

Z

Search

What

Where
 

Benediction - "Deadfall" Guitar Tab

Plain Text Version
More Benediction Tabs

Hits: 4644
Rated: 4.40 out of 5 (5 votes)
Updated: 2003-06-14 06:54:48

 

Important note
This tab is available online because we obtained explicit permission from Benediction or their label.


#----------------------------------PLEASE NOTE---------------------------------#
#This file is the author's own work and represents their interpretation of the #
#song. You may only use this file for private study, scholarship, or research. #
#Unless specified otherwise, this is NOT an official tab from the band members.#
#------------------------------------------------------------------------------#

  Visit MetalTabs.com for more metal tablature
  
Artist: Benediction
Album:  Grind Bastard
Track:  Deadfall
Tabbed by: Alberto Urra <urra1980@hotmail.com>
05th May 2003

Tune Gtr to E


RIFF 1:

|---------------------------------------------|
|---------------------------------------------|
|---------------------------------------------|
|-2-22*---2-22*---2-22*---2-22*-------6-----5-|
|-2-22----2-22----2-22----2-22--------4-----3-|
|-0-00----0-00----0-00----0-00----0-0---0-0---|
pm...............................   ...

* With echo


RIFF 2:

|--------------------------------------------------------------------------|
|--------------------------------------------------------------------------|
|--------------------------------------------------------------------------|
|-2-22-22-222-22222-22-22-----6-----5--2-22-22-222-22222-22-22-----6-----7-|
|-2-22-22-222-22222-22-22-----4-----3--2-22-22-222-22222-22-22-----4-----5-|
|-0-00-00-000-00000-00-00-0-0---0-0----0-00-00-000-00000-00-00-0-0---0-0---|
pm...........................   ...    ...........................   ...


RIFF 3:

|---------------------------|
|---------------------------|
|---------------------------|
|-3-3-3-6-6-6-5-5-5-8-8-8---|
|-3-3-3-6-6-6-5-5-5-8-8-8---|
|-1-1-1-4-4-4-3-3-3-6-6-6---|  X4


RIFF 2

RIFF 3

RIFF 2 + SOLO

SOLO:

|-----------------------------------------------------|
|-----------------------------------------------------|
|-----------------------------------------------------|
|-\9~---9-10-9~--9-10-9-7-9-10-9-7-9~--9-10-9-7-------|
|-----------------------------------------------7~-7~-|
|-----------------------------------------------------|


|-----------------------------------------------------------|
|-----------------------------------------------------------|
|-\9-10-9----------9-10-9----------9-10-9-------------------|
|---------12-10-9---------12-10-9---------12-10-9-7-9-10-9~-|
|-----------------------------------------------------------|
|-----------------------------------------------------------|


RIFF 4:

|----------------------------------------|
|----------------------------------------|
|----------------------------------------|
|-2-22-------6-----5--2-22-------6-----7-|
|-2-22-------4-----3--2-22-------4-----5-|
|-0-00---0-0---0-0----0-00---0-0---0-0---| X2
pm..........   ...   ...........   ...


RIFF 2

RIFF 3

RIFF 5:

|-------------------------------------------------|
|-------------------------------------------------|
|-------------------------------------------------|
|-----6-----5-----6-----5-----6-----5-----3-----2-|
|-----4-----3-----4-----3-----4-----3-----1-----0-|
|-0-0---0-0---0-0---0-0---0-0---0-0---0-0---0-0---|
pm...   ...   ...   ...   ...   ...   ...   ...


RIFF 6:

|--------------------------------------------------------------------|
|--------------------------------------------------------------------|
|--------------------------------------------------------------------|
|--------------------------------------------------------------------|
|--------------------------------------------------------------------|
|-0-1-1-1-1-1-1-1--0-1-1-1-1-1-1-1--0-1-1-1-1-1-1-1--0-2-2-2-2-2-2-2-|
pm..................................................................


|----------------------------------------------------------------|
|----------------------------------------------------------------|
|----------------------------------------------------------------|
|--------------------------------------------------------6-----5-|
|--------------------------------------------------------4-----3-|
|-0-1-1-1-1-1-1-1--0-1-1-1-1-1-1-1--0-1-1-1-1-1-1-1--0-0---0-0---|
pm......................................................   ...


RIFF 2 + RIFF 7

RIFF 7:

|-----------------------------------------------|
|-----------------------------------------------|
|-\4-4-4-4--4-4-4-4\5-5--4-4-4-4--4-4\5-4-5-5\7-|
|-----------------------------------------------|
|-\2-2-2-2--2-2-2-2\3-3--2-2-2-2--2-2\3-2-3-3\5-|
|-----------------------------------------------|

|-------------------------------------------------------------------|
|-------------------------------------------------------------------|
|-7\9--9-9-9--9-7\9--9--9\10-10--10-7\9--9-9-9--9-9\10--9--10-10\12-|
|-------------------------------------------------------------------|
|-5\7--7-7-7--7-5\7--7--7\8--8---8--5\7--7-7-7--7-7\8---7--8---8\10-|
|-------------------------------------------------------------------|

Listen to the song to know how many times you have to pick each note exactly.


RIFF 4

RIFF 2

RIFF 3

RIFF 5


FINAL:

|---------|
|---------|
|---------|
|-2-3-3-3-|
|-2-3-3-3-|
|-0-1-1-1-|

  Visit MetalTabs.com for more metal tablature

bottom separator

Contact Us | Privacy Policy | Disclaimer | Legal Notice
Copyright © 2001-2014 MetalTabs.com. All Rights Reserved.