top separator

Home

Forum

What's New

Submit a Tab

FAQ

Links

Contact Us

Link to Us

MuSpy.com

MetalTabs.com logo

Bands

0-9

A

B

C

D

E

F

G

H

I

J

K

L

M

N

O

P

Q

R

S

T

U

V

W

X

Y

Z

Search

What

Where
 

Katatonia - "Gone" Guitar Tab

Plain Text Version
More Katatonia Tabs

Hits: 7673
Rated: 3.86 out of 5 (7 votes)
Updated: 2001-06-27 01:56:45

 

Important note
This tab is available online because we obtained explicit permission from Katatonia or their label.


#----------------------------------PLEASE NOTE---------------------------------#
#This file is the author's own work and represents their interpretation of the #
#song. You may only use this file for private study, scholarship, or research. #
#Unless specified otherwise, this is NOT an official tab from the band members.#
#------------------------------------------------------------------------------#

  Visit MetalTabs.com for more metal tablature
  
Artist: Katatonia
Title:  Gone
Album: Discouraged Ones

Tab by Umut Eldem

clean tone

Riff A1
|----------------------------------------------------------------|
|--------------------------------------------------0---0---------|
|--2----0----0--------4-------------5-------5--------5-----------|
|--2----2----2---4----4----4--5--5--5---5--------5---------------|
|--0----3-3--3---2--2-2--2-2--3--3--3---3------3-----------------|
|----------------------------------------------------------------|

Riff A2
|-------------------------------------|
|-------------------------------------|
|--2---0----0-------4-----4---2-------|
|--2---2----2--4----4--4--4---2-------|
|--0---3--3-3--2--2-2--2--2---0-------|
|-------------------------------------|


blast!
distortion, let ring...

Riff B
|-------------------|
|-------------------|
|---5---4---2-------|
|---5---4---2-------|
|---3---2---0-------|
|-------------------|

Riff B accompany


|--------------------------------------------------|
|--/13~~---12~----10~~~~--10-12~~~~~~~-------------|
|--------------------------------------------------|
|--------------------------------------------------|
|--------------------------------------------------|
|--------------------------------------------------|

that's all I have...

Questions,comments, anything:

ricochetofstars@hotmail.com

  Visit MetalTabs.com for more metal tablature

bottom separator

Contact Us | Privacy Policy | Disclaimer | Legal Notice
Copyright © 2001-2014 MetalTabs.com. All Rights Reserved.