top separator

Home

Forum

What's New

Submit a Tab

FAQ

Links

Contact Us

Link to Us

MetalTabs.com logo

Bands

0-9

A

B

C

D

E

F

G

H

I

J

K

L

M

N

O

P

Q

R

S

T

U

V

W

X

Y

Z

Search

What

Where
 

Whiplash - "Temple of punishment" Guitar Tab

Plain Text Version
More Whiplash Tabs

Hits: 3283
Updated: 2003-06-14 06:51:26

 

By:

Kramer

sendpm.gif

email.gif

Important note
We did our best to reach Whiplash and ask for their permission to publish this tab. Unfortunately they did not respond to our requests or we could not find a way to contact them. This tab is available online until Whiplash tells us to take it down.


#----------------------------------PLEASE NOTE---------------------------------#
#This file is the author's own work and represents their interpretation of the #
#song. You may only use this file for private study, scholarship, or research. #
#Unless specified otherwise, this is NOT an official tab from the band members.#
#------------------------------------------------------------------------------#

  Visit MetalTabs.com for more metal tablature
  
Whiplash "Temple of Punishment" from THRASHBACK (1998)

Submitted by Kramer
E-mail: Pantera9560@aol.com (Use the song & band name as the subj.)

R.I.P. Tony Bono

Riff 1 6x then end w/ an A5 chord
A-------3--4---------3--4---------3--3h4---
E-0--2---------0--2---------0--2-----------

Riff 2 3x
G----------------------------2----------------------------------------2-----2--4----
D-------------------4--2--4--2--4--2--4----------------------4--2--4--2--4--2--4----
A-------------------4--2--4-----4--2--4----------------------4--2--4-----4----------
E-2-2-2-2-2-2-0-2--------------------------2-2-2-2-2-2-0-2--------------------------

G----------------------------2------------------------------
D-------------------4--2--4--2--4--2--4----4--------7-------
A-------------------4--2--4-----4--2--4----2--------5-------
E-2-2-2-2-2-2-0-2--------------------------2--------5-------

Riff 2 ending
D-4--------2-------
A-2--------0-------
E-2--------0-------

Riff 3 once
D-4--------7--------2--------9--------4--------7----
A-2--------5--------0--------7--------2--------5----
E-2--------5--------0--------7--------2--------5----

Riff 1 once
Riff 3 once
Riff 2 once
Riff 1 once
Riff 2 twice then ending
Riff 3 once
Riff 1 once
Riff 3 once

Riff 4 twice
G-------------------2-2--------------------------------------------2-2-------------------
D-4-44444444444--4--0-0---------------------2-----4-44444444444-4--0-0-2-222222----------
A-2-22222222222--2-------4-444444444444--4--0--4--2-22222222222-2------0-000000--2-222222
E------------------------2-222222222222--2-----2---------------------------------0-000000

Riff 5 twice
D-------------2-22222222--4-44444444---4--7-7--4--7-7---
A-4-44444444--0-00000000--2-22222222---2--5-5--2--5-5---
E-2-22222222--------------------------------------------

Riff 2 3x then ending
Riff 3 once
Riff 1 once
Riff 3 once
Riff 1 once
Riff 3 once
Riff 1 once
Riff 3 once
Riff 1 4x then F#5 chord

  Visit MetalTabs.com for more metal tablature

bottom separator

Contact Us | Privacy Policy | Disclaimer | Legal Notice
Copyright © 2001-2014 MetalTabs.com. All Rights Reserved.