top separator

Home

Forum

What's New

Submit a Tab

FAQ

Links

Contact Us

Link to Us

MetalTabs.com logo

Bands

0-9

A

B

C

D

E

F

G

H

I

J

K

L

M

N

O

P

Q

R

S

T

U

V

W

X

Y

Z

Search

What

Where
 

Helstar - "Run with the Pack" Bass Tab

Plain Text Version
More Helstar Tabs

Hits: 4092
Rated: 5.00 out of 5 (1 vote)
Updated: 2003-10-12 09:44:05

 

By:

darionuzzolo

sendpm.gif

email.gif

Important note
We did our best to reach Helstar and ask for their permission to publish this tab. Unfortunately they did not respond to our requests or we could not find a way to contact them. This tab is available online until Helstar tells us to take it down.


#----------------------------------PLEASE NOTE---------------------------------#
#This file is the author's own work and represents their interpretation of the #
#song. You may only use this file for private study, scholarship, or research. #
#Unless specified otherwise, this is NOT an official tab from the band members.#
#------------------------------------------------------------------------------#

  Visit MetalTabs.com for more metal tablature
  
HELSTAR  Run With The Pack

Artist: Helstar
Album: Burning Star

Tabbed by Dario N.(nightfliers@virgilio.it)



Intro

|-------|
|------5|
|0-7-5--|
|-------|



Interlude 1

|-------|-------|-------|-------|
|-------|-------|-------|------5|
|-00-5--|-00-5--|-00-5--|0-7-5--|
|-------|-------|-------|-------|



Verse 1

|-------|-------|-------|-------|
|-------|-------|-------|-------|
|-00-5--|-00-5--|-00-5--|-05-7--|
|-------|-------|-------|-------|



Chorus

|-------|-------|-------|-------|-------|-------|-------|-------|-------|
|-------|-------|-------|-------|-------|-------|-------|-------|-------|
|---0---|---0---|-------|-------|-------|-------|---0---|---0---|-------|
|-------|-------|--/15--|-15-17-|--12---|--19---|-------|-------|/15-15-|

|-------|-------|-------|-------|-------|
|-------|-------|-------|-------|-----5-|
|-------|-------|-------|-------|-7-5---|
|-15-17-|/15-15-|-15-12-|--/17--|-------|



Solo

|-------|-------|-------|-------|
|-------|-------|-------|------5|
|-00-5--|-00-5--|-00-5--|0-7-5--|
|-------|-------|-------|-------|



Fill

|-------|
|------5|
|0-7-5--|
|-------|



Fill 2

|-------|
|-------|
|---0---|
|-------|



Interlude 2

|-------|
|-------|
|-------|
|-3-00--|



Fill 3

|-------|
|-------|
|-------|
|---3---|



Verse 2

|-------|-------|-------|
|-------|-------|-------|
|0-0000-|--000--|-7-5-3-|
|-------|-------|-------|



Fill 4

|-------|-------|-------|
|-------|-------|---5---|
|---0---|---7---|-------|
|-------|-------|-------|



Verse 3

|-------|-------|-------|-------|
|-------|-------|-------|-------|
|-7--5--|-3--0--|----5--|-------|
|-------|-------|-3-5--5|-3-0-3-|



Ending

|-------|-------|
|-------|-------|
|---0---|-------|
|-------|---3---|



PLAY:

Intro x 5
Interlude 1 x 3
Verse x 8
Chorus
Interlude 1 x 4
Verse 1 x 8
Chorus
Interlude1 x 3
Solo x 4
Fill
Solo x 4
Interlude 2
Fill
Fill 2
Interlude 2 x 3
Fill 3
Interlude 1 x 5
Verse 1 x 8
Chorus
Verse 2 x 11
Fill 4
Verse 2 x 12
Fill 4
Verse 3 x 8
Fill 4
Ending


For any comments, questions etc please contact me

  Visit MetalTabs.com for more metal tablature

bottom separator

Contact Us | Privacy Policy | Disclaimer | Legal Notice
Copyright © 2001-2014 MetalTabs.com. All Rights Reserved.