top separator

Home

Forum

What's New

Submit a Tab

FAQ

Links

Contact Us

Link to Us

MuSpy.com

MetalTabs.com logo

Bands

0-9

A

B

C

D

E

F

G

H

I

J

K

L

M

N

O

P

Q

R

S

T

U

V

W

X

Y

Z

Search

What

Where
 

Katatonia - "For my demons" Guitar Tab

Plain Text Version
More Katatonia Tabs

Hits: 11217
Rated: 2.25 out of 5 (16 votes)
Updated: 2001-05-17 10:08:18

 

Important note
This tab is available online because we obtained explicit permission from Katatonia or their label.


#----------------------------------PLEASE NOTE---------------------------------#
#This file is the author's own work and represents their interpretation of the #
#song. You may only use this file for private study, scholarship, or research. #
#Unless specified otherwise, this is NOT an official tab from the band members.#
#------------------------------------------------------------------------------#

  Visit MetalTabs.com for more metal tablature
  
Artist: Katatonia
Album:  Tonight's Decision
Title:  For My Demons

This is a wonderful song but the notes don't make much sense...It's their
style I guess....

The first clean part is very confusing because of all the mixed up guitars..
Here's what I got...

Riff 1

|------------------------------------------------|
|--1---1---1---0h1--0h1--0---1-0-----0----1------|
|--2---2---2---0h2--0h2--0---2-0--2--0-2--2------|
|---------------------------------3----3---------|
|------------------------------------------------|
|------------------------------------------------|

Something like that....


Riff 2 (distorted!)
Chorus

|--------------------------------------------------------------------------
|--------------------------------------------------------------------------
|--------------------------------------------------------------------------
|--------9-9-9-------10-10-10------12---------9-9-9-------10-10-10-----8---
|-7-7-7--------7-7-7----------7-7-------7-7-7-------7-7-7----------7-7-----
|--------------------------------------------------------------------------

|-------------------------------------------------|
|-------------------------------------------------|
|--9-9-9-8-8-8------------------------------------|
|---------------9-9-9-10-10-10-10-10-10-10--------|
|-------------------------------------------------|
|-------------------------------------------------|



I have no idea about the next clean riff...Lots of strange sounds are
present...


Riff 4

|-----------------------------------------------------------------
|-----------------------------------------------------------------
|-----------------------------------------------------------------
|--5-5-5-5----2--5-5-5-2-2-2-5-5-5-2-2-2-5-5-2-2----5-5-5-5-2-3---
|--5-5-5-5----2--3-3-3-0-0-0-3-3-3-0-0-0-3-3-0-0----5-5-5-5-2-3---
|--3-3-3-3-x--0-------------------------------------3-3-3-3-0-1---

-------------------------------------------|
-------------------------------------------|
-------------------------------------------|
-------------------------------------------|
--5-3-5-3-5-3------------------------------|
--3-1-3-1-3-1------------------------------|


RIff 1 again and then chorus and then finish...


comments, questions anythinhg:

ricochetofstars@hotmail.com

  Visit MetalTabs.com for more metal tablature

bottom separator

Contact Us | Privacy Policy | Disclaimer | Legal Notice
Copyright © 2001-2014 MetalTabs.com. All Rights Reserved.