top separator

Home

Forum

What's New

Submit a Tab

FAQ

Links

Contact Us

Link to Us

MetalTabs.com logo

Bands

0-9

A

B

C

D

E

F

G

H

I

J

K

L

M

N

O

P

Q

R

S

T

U

V

W

X

Y

Z

Search

What

Where
 

Katatonia - "Epistel" Guitar Tab

Plain Text Version
More Katatonia Tabs

Hits: 5226
Rated: 4.17 out of 5 (6 votes)
Updated: 2001-05-17 10:07:53

 

Important note
This tab is available online because we obtained explicit permission from Katatonia or their label.


#----------------------------------PLEASE NOTE---------------------------------#
#This file is the author's own work and represents their interpretation of the #
#song. You may only use this file for private study, scholarship, or research. #
#Unless specified otherwise, this is NOT an official tab from the band members.#
#------------------------------------------------------------------------------#

  Visit MetalTabs.com for more metal tablature
  
                   Band:    Katatonia
                  Album:    For Funerals to Come
                  Track:    Epistel


Tabbed By: Adnan Khalid

E-mail:  adnankhd@yahoo.com


Standard tuning:
e[-------------------------------|-----------------------------|
B[-------------------------------|-----------------------------|
G[----------9---9-----7---7------|-----------------------------|
D[--------7---7-----7---7--------|-----10---10--8---8----------|
A[------5---------5--------------|---8----8-------8---10-p-8-8-|
E[-------------------------------|-6---------------------------|

[-------------------------------|-----------------------------|
[-------------------------------|---------3---3--2---2--0--2--|
[----------9---9-----7---7------|-------2---2------2----------|
[--------7---7-----7---7--------|-----0-----------------------|
[------5---------5--------------|-----------------------------|
[-------------------------------|-----------------------------|

[-------------------------------|
[-------------------------------|
[---------2--0---5--------------|
[--------------3---3--2---------|
[-------------------------------|
[-------------------------------|

[-------------------------------|-----------------------------|
[-------------------------------|----------3---3--------------|
[---------5---5-----4---4-------|--------------------5---5----|
[-------2---2-----2---2---------|--------2---2-----2---2------|
[-----0---------0---------------|------0---------0------------|
[-------------------------------|-----------------------------|

[-------------------------------|-----------------------------|
[-------------------------------|-----------------------------|
[--------5---5-----4---4--------|---------2---2--1---1---1----|
[------2---2-----2---2----------|-------2---2------2----------|
[----0---------0----------------|-----2----------------2------|
[-------------------------------|-----------------------------|

[-------------------------------|-----------------------------|
[-------------------------------|-----------------------------|
[--------14----14-----12---12---|------17----17------16----16-|
[-----10----10------9----9------|---14----14------14----14----|
[---0-------------0-------------|-0-------------0-------------|
[-------------------------------|-----------------------------|

[-------------------------------|-----------------------------|
[-------------------------------|-----------------------------|
[--------14----14-----12---12---|-----9---9-----10---10-------|
[-----10----10------9----9------|---7---7-----7----7----------|
[---0-------------0-------------|-0---------0-----------------|
[-------------------------------|-----------------------------|


this is a combinations of all the riffs used, listen
to the CD for the structure

enjoy

  Visit MetalTabs.com for more metal tablature

bottom separator

Contact Us | Privacy Policy | Disclaimer | Legal Notice
Copyright © 2001-2014 MetalTabs.com. All Rights Reserved.