top separator

Home

Forum

What's New

Submit a Tab

FAQ

Links

Contact Us

Link to Us

MetalTabs.com logo

Bands

0-9

A

B

C

D

E

F

G

H

I

J

K

L

M

N

O

P

Q

R

S

T

U

V

W

X

Y

Z

Search

What

Where
 

Katatonia - "Endtime" Guitar Tab

Plain Text Version
More Katatonia Tabs

Hits: 8340
Rated: 4.12 out of 5 (8 votes)
Updated: 2001-05-17 10:07:31

 

Important note
This tab is available online because we obtained explicit permission from Katatonia or their label.


#----------------------------------PLEASE NOTE---------------------------------#
#This file is the author's own work and represents their interpretation of the #
#song. You may only use this file for private study, scholarship, or research. #
#Unless specified otherwise, this is NOT an official tab from the band members.#
#------------------------------------------------------------------------------#

  Visit MetalTabs.com for more metal tablature
  
KATATONIA - ENDTIME

from the AVANTGARDE MUSIC masterpiece "BRAVE MURDER DAY"
TABBED BY HARIS DURAKOVIC (THE FOREVERLORN)



Guitar 1
Acoustic
Riff 1
|-----------------------------------------------------------------|
|-----------------------------------------------------------------|
|-4-4-4-2-2-2---------------------4-4-4-2-2-2---------------------|
|-------------4-4-5-5-5-4-4-4-2-0-------------4-4-5-5-5-4-4-4-2-0-|
|-----------------------------------------------------------------|
|-----------------------------------------------------------------|


|-----------------------------------------------------------------|
|-3-3-1-1-1-1-0-1-1-1-1-0-1-3-------3-3-1-1-1-1-0-1-1-1-1-0-1-0---|
|-----------------------------2-2-2-----------------------------2-|
|-----------------------------------------------------------------|
|-----------------------------------------------------------------|
|-----------------------------------------------------------------|


|-----------------------------------------------------------------------------|
|-4-4-4-4-4-4-4-4-4-4-4-6-6-6-8-8-3-3-3-3-3-3-3h4p3-1-1-1-1h3h4---------------|
|---------------------------------------------------------------3-3-3-3-3-3-3-|
|-----------------------------------------------------------------------------|
|-----------------------------------------------------------------------------|
|-----------------------------------------------------------------------------|


Electric
Riff 2
|-----0-------------------0--------|
|-----0-------------------0--------|
|-----0---------------5---5------4-|
|-2-----------4-4/5---5----------4-|
|-2-------2-2-5-5/7---3----------2-|
|-0----------------------------0-2-|
                               .


|-----0-------------------0--------|
|-----0-------------------0--------|
|-----0---------------5---5--------|
|-2-----------4-4/5---5----------5-|
|-2-------2-2-5-5/7---3----------5-|
|-0----------------------------0-3-|
                               .

Acoustic
Riff 3
|-----------0-------------0---0-------------0---------------------|
|-----7---0---0-------5-----4---0-----7---0---0-------5---4h5p4-0-|
|---8---8-------8---6---6-----------8---8-------8---6---6-4h6p4---|
|-----------------------------------------------------------------|
|-0---------------0---------------0---------------0---------------|
|-----------------------------------------------------------------|


Riff 4
|---------4---------5-----4---------------4---------------------0-|
|-------4---4---------0-----0---0-------4---4-------5-----4-------|
|-----6-------6---------6-----6-------6-------6-------6-----6-----|
|---6-----------6-------------------6-----------6-------7-----7---|
|-4---------------0---------------4---------------0---------------|
|-----------------------------------------------------------------|


Electric
Riff 5
|--------------------------------------------------------------|
|--------------------------------------------------------------|
|-4~--4~--4-4/11-11-11~--11-12p11-11\4-4~--10-10-6-3~--3/5-5\4-|
|--------------------------------------------------------------|
|--------------------------------------------------------------|
|--------------------------------------------------------------|


Riff 6
|--------------------------------------------------------------|
|--------------------------------------------------------------|
|-4~--4~--4-4/11-11-11~--11-12p11-11\5-5~--10-10-6-3~--3/5-5\4-|
|--------------------------------------------------------------|
|--------------------------------------------------------------|
|--------------------------------------------------------------|


Acoustic
Riff 7
|-------------------------------------0h2-------2-|
|-----------------------------------------1---1---|
|-----4-----4-----4-----4-----4-----4-------2-----|
|---5-----5-----5-----5-----5-----5---------------|
|-7-----7-----7-----7-----7-----7-----------------|
|-------------------------------------------------|


Riff 8
|-0h2-------2-0h2-------2-0h2-------2-0h2-------2-|
|-----1---1-------1---1-------1---1-------1---1---|
|-------2-----------2-----------2-----------2-----|
|-------------------------------------------------|
|-------------------------------------------------|
|-------------------------------------------------|


Guitar 2
Acoustic
Riff 1
|-----------------------------------------------------------------|
|-----------------------------------------------------------------|
|-----------------------------------------------------------------|
|-----2---2-------2---2-------2-------2---2-------2---2-------2---|
|---2---2---2---2---2---2---2---2---2---2---2---2---2---2---2---2-|
|-0-----------0-----------0-------0-----------0-----------0-------|



|-----------------------------------------------------------------|
|-----------------------------------------------------------------|
|-----5---5-------5---5-------5-------5---5-------5---5-------5---|
|---5---5---5---5---5---5---5---5---5---5---5---5---5---5---5---5-|
|-3-----------3-----------3-------3-----------3-----------3-------|
|-----------------------------------------------------------------|


|-----------------------------------------------------------------|
|-----------------------------------------------------------------|
|-----5---5-------5---5-------5-------5---5-------5---5-------5---|
|---2---2---2---2---2---2---2---2---2---2---2---2---2---2---2---2-|
|-0-----------0-----------0-------0-----------0-----------0-------|
|-----------------------------------------------------------------|


|-----------------------------------------------------------------|
|-----------------------------------------------------------------|
|-----8---8-------8---8-------8-------8---8-------8---8-------8---|
|---8---8---8---8---8---8---8---8---8---8---8---8---8---8---8---8-|
|-6-----------6-----------6-------6-----------6-----------6-------|
|-----------------------------------------------------------------|


Elcetric
Riff 2
|------------------------------|-----------------------------|
|------------------------------|-----------------------------|
|--------------------5-------4-|--------------------5--------|
|-2----------4-4/5---5-------4-|-2----------4-4/5---5------5-|
|-2------2-2-5-5/7---3-------2-|-2------2-2-5-5/7---3------5-|
|-0------------------------0-2-|-0-----------------------0-3-|
                           .                             .

Bridge   Riff 6
|------|-----------------------------------|
|------|-----------------------------------|
|-3--5-|----------5--5----5-5-2--2----3----|
|-3--5-|-2----2-2-5--5----5-5-2--2----3--4-|
|-1--3-|-2----2-2-3--3----3-3-0--0----1--4-|
|-1--3-|-0----0-0-3--3----3-3---------1--2-|


Riff 7
|----------------|
|----------------|
|------4----7--2-|
|-2----4----7--2-|
|-2----2----5--0-|
|-0--------------|



I only tabbed the basic riffs of this song! For corrections or other
versions please mail me: foreverlorn@gmx.de

  Visit MetalTabs.com for more metal tablature

bottom separator

Contact Us | Privacy Policy | Disclaimer | Legal Notice
Copyright © 2001-2014 MetalTabs.com. All Rights Reserved.