top separator

Home

Forum

What's New

Submit a Tab

FAQ

Links

Contact Us

Link to Us

MuSpy.com

MetalTabs.com logo

Bands

0-9

A

B

C

D

E

F

G

H

I

J

K

L

M

N

O

P

Q

R

S

T

U

V

W

X

Y

Z

Search

What

Where
 

Katatonia - "Cold ways" Guitar Tab

Plain Text Version
More Katatonia Tabs

Hits: 7803
Rated: 3.40 out of 5 (5 votes)
Updated: 2001-05-17 10:06:56

 

Important note
This tab is available online because we obtained explicit permission from Katatonia or their label.


#----------------------------------PLEASE NOTE---------------------------------#
#This file is the author's own work and represents their interpretation of the #
#song. You may only use this file for private study, scholarship, or research. #
#Unless specified otherwise, this is NOT an official tab from the band members.#
#------------------------------------------------------------------------------#

  Visit MetalTabs.com for more metal tablature
  
KATATONIA
COLD WAYS
DISCOURAGED ONES tuning in D
Tabed by Rafa

RIFF 1
|-----------------------------------------------------------------------------|
|-----------------------------------------------------------------------------|
|-----5--------7----9-9-9-9-9-9-9-9-----5--------7----12-12-12-12-12-12-12-12-|
|---7---7----9---9--9-9-9-9-9-9-9-9---7---7----9---9--12-12-12-12-12-12-12-12-|
|-5--------7--------7-7-7-7-7-7-7-7--5-------7--------10-10-10-10-10-10-10-10-|
|-----------------------------------------------------------------------------|

RIFF 2
|----------------------------------------------------------------------------------|
|----------------------------------------------------------------------------------|
|-5-5-5-5-5-5-5-5-4-4-4--------------5-5-5-5-5-5-5-5-5-5-5-9-9-9-9-4-4/5-5---------|
|-5-5-5-5-5-5-5-5-4-4-4-5-5-2-2-2-2--5-5-5-5-5-5-5-5-5-5-5-9-9-9-9-4-4/5-5\2-2-2-2-|
|-3-3-3-3-3-3-3-3-2-2-2-5-5-2-2-2-2--3-3-3-3-3-3-3-3-3-3-3-7-7-7-7-2-2/3-5\2-2-2-2-|
|-----------------------3-3-0-0-0-0---------------------------------------\0-0-0-0-|

RIFF 3 (GUITAR 1 )

|-------------------------|
|-------------------------|
|-------------------------|
|2-2-2-2-2-2-2-2-2-2-2-2-2|
|2-2-2-2-2-2-2-2-2-2-2-2-2|
|0-0-0-0-0-0-0-0-0-0-0-0-0|

FIFF3 (GUITAR 2)
|--------------------------------|
|-9------------9-----------------|
|--8-8h10-------8-10h11p10------8|
|----------8---------------11-9--|
|--------------------------------|

RIFF4 (GUITAR 1)
|----------------------------------------------------------------|
|----------------------------------------------------------------|
|-5-5-5-5-5-5-5-5-7-7-7-7-7-7-7-7-9-9-9-9-9-9-9-9-4-4-4-4-4-4-4-4|
|-5-5-5-5-5-5-5-5-7-7-7-7-7-7-7-7-9-9-9-9-9-9-9-9-4-4-4-4-4-4-4-4|
|-3-3-3-3-3-3-3-3-5-5-5-5-5-5-5-5-7-7-7-7-7-7-7-7-2-2-2-2-2-2-2-2|
|----------------------------------------------------------------|

RIFF 4 (GUITAR 2)

|----------------------------------|
|-------------------------12-\11---|
|-12-------\---11------------------|
|----------------------------------|
|----------------------------------|
|----------------------------------|

I CANT FIGURE OUT THE ACOUSTIC PARTS IF YOU DO, PLEASE SEND TO rafaelv@koramsa.com

  Visit MetalTabs.com for more metal tablature

bottom separator

Contact Us | Privacy Policy | Disclaimer | Legal Notice
Copyright © 2001-2014 MetalTabs.com. All Rights Reserved.