top separator

Home

Forum

What's New

Submit a Tab

FAQ

Links

Contact Us

Link to Us

MetalTabs.com logo

Bands

0-9

A

B

C

D

E

F

G

H

I

J

K

L

M

N

O

P

Q

R

S

T

U

V

W

X

Y

Z

Search

What

Where
 

Unleashed - "If They had Eyes" Guitar Tab

Plain Text Version
More Unleashed Tabs

Hits: 3193
Rated: 4.00 out of 5 (2 votes)
Updated: 2003-06-09 13:33:54

 

By:

Arckanum

sendpm.gif

email.gif

Important note
This tab is available online because we obtained explicit permission from Unleashed or their label.


#----------------------------------PLEASE NOTE---------------------------------#
#This file is the author's own work and represents their interpretation of the #
#song. You may only use this file for private study, scholarship, or research. #
#Unless specified otherwise, this is NOT an official tab from the band members.#
#------------------------------------------------------------------------------#

  Visit MetalTabs.com for more metal tablature
  
Band: Unleashed
Album: Where No Life Dwells
Song: If They Had Eyes

Transcribed By: Arckanum
Email: Arckanum@teamwarfare.com
Website: www.teamrapture.com
More Tabs from me at: http://www.doomish.com/go/?r=arckanum

listen to the song to know when to tremolo pick and palm mute and such.
NOTE: there are mistakes that i couldn't get, being that some riffs
are tuff to tab by ear. If anyone finds a fix plz email it to me.
Also listen to the song to hear the Riff order cuz i'm to lazy to
write it out, shouldn't be hard tho.

Tuning: 2.5 steps down (B)

Riff:1                     Riff:2
|-------------------------|-----------------------------------------|
|-------------------------|-----------------------------------------|
|-------------------------|-----------------------------------------|
|-4-----------4-----5/6-3-|-4--------------4---------5/6-3----------|
|-2-222-2-323-2-222-------|-2-222--2-2-323-2-222-2-2----------------|
|---000-0-101---000-------|---000--0-0-101---000-0-0----------------|

Riff:3
|-------------------------------------------------------------------|
|-------------------------------------------------------------------|
|----------------------------h--2----------------------------h--2---|
|----3-------h--2-------3---2-3---3-2---3----h--2-------3---2-3--3-2|
|2-3-1-3-2--2-3---3-2-3-1-2-----------3-1-2-2-3---3-2-3-1-2---------|
|0-1---1-0------------1---0-----------1---0-----------1---0---------|

Riff:4                             Riff:5
|---------------------------------|---------------------------------|
|---------------------------------|---------------------------------|
|---------------------------------|-----------2/3--------------2/3--|
|-------------3-------------3-----|-3------------4-3-3-------------3|
|-2-222-222-5-1-3-2-222-222-1-5-3-|-1---3----5-------1---3----5-----|
|-0-000-000-3---1-0-000-000---3-1-|--00-1-00-3--------00-1-00-3-----|

Fill:1                     Riff:6
|------------------------|------------------------------------------|
|------------------------|------------------------------------------|
|------------------------|------------------------------------------|
|-3-----3----------3-----|-------7---------7-----6------7------7----|
|-1-222-1-222--2-3-1-3-2-|---7-8---8---7-8---8-7----7-8----7-8---8-7|
|---000---000--0-1---1-0-|-0---------0------------0------0----------|

Riff:7			       Riff:8                  1st 2nd
|-----------------------------|---------------------------|---------|
|-----------------------------|--------------------p------|--p------|
|-----------------------------|----------------h--9-8---7-|-9-8-----|
|------3-------------3-9------|------------h--5-7-----9---|-----9-7-|
|-2--3-1-2--5-3-2--3-1-7--5-3-|-2---------4-6-------------|---------|
|-0--1---0--3-1-0--1------3-1-|-0-000-000-----------------|---------|

  Visit MetalTabs.com for more metal tablature

bottom separator

Contact Us | Privacy Policy | Disclaimer | Legal Notice
Copyright © 2001-2014 MetalTabs.com. All Rights Reserved.