top separator

Home

Forum

What's New

Submit a Tab

FAQ

Links

Contact Us

Link to Us

MuSpy.com

MetalTabs.com logo

Bands

0-9

A

B

C

D

E

F

G

H

I

J

K

L

M

N

O

P

Q

R

S

T

U

V

W

X

Y

Z

Search

What

Where
 

Katatonia - "At last" Guitar Tab

Plain Text Version
More Katatonia Tabs

Hits: 7153
Rated: 3.00 out of 5 (2 votes)
Updated: 2001-05-17 10:05:00

 

Important note
This tab is available online because we obtained explicit permission from Katatonia or their label.


#----------------------------------PLEASE NOTE---------------------------------#
#This file is the author's own work and represents their interpretation of the #
#song. You may only use this file for private study, scholarship, or research. #
#Unless specified otherwise, this is NOT an official tab from the band members.#
#------------------------------------------------------------------------------#

  Visit MetalTabs.com for more metal tablature
  
Artist:  Katatonia
Album:   Sounds of Decay
Track:   at last

Tabbed by : John M
            citastro@hotmail.com
	    marym@iol.ie

6th Feb 2000


**** Tune Guitar so first note of song corresponds to Em ****

Tuning is regular -E-A-D-G-B-E-
Guitars should delay/reverb on them...

++++++++++++++++++++++++++++++++++++++++++++++++++++++++++++++++++++++++

                            from  0:00 to 0:58
Part 1

^= bend up 1 fret in pitch
\= slide down
/= slide up

Gtr 1 (in slashes...)
      ------------------------------------------------------------------
      ------------------------------------------------------------------
      --------------------------------------------------22222222--------
      22222222555555557777777755555555--66666666222222222222222233333333
      22222222333333335555555533333333--66666666222222220000000033333333
      00000000333333335555555533333333--4444444400000000--------11111111

Gtr 2 (in slashes...)

      ----------------------------------------------------------------------
      ----------------------------------------------------------------------
      -----------------------------------------------------------9--9--9--9- (the 9's and 11's and
      99999997777777777777777777777777--9--9--9--9---9--9--9--9-10-10-10-10- (the 9's and 10's are
      77777777777777775555555533333333--11-11-11-11-10-10-10-10------------- (played simultaneously)
      000000000000000055555555----------------------------------------------

Play this around twice I think
++++++++++++++++++++++++++++++++++++++++++++++++++++++++++++++++++++++++++++++++++++++++++++

Part 2 			From 0:59 to 1:40

Gtr 1
      -----------------------------------------------------------
      -----------------------------------------------------------
      -----------------------------------------------------------
      ---------2-------------------------------------------------
      5-5----4-2--4h5--------------------------------------------
      4-2-22-2-0-0-----------------------------------------------

Gtr 2: (with vibrato and some sustain..)
      -------------------------------------------------------------
      -------------------------------------------------------------
      14-------------11-11-11------repeat--14-----------9-11-------
      --12-11-12-11-9------------------------12-11-12-11----10-----
      -----------------------12-11----------------------------11-12
      -------------------------------------------------------------

      -----------------------------------------------------------
      ------------------13-13------------------------------------
      -14-13-11-13-14-14-----13-14-------------------------------
      -----------------------------------------------------------
      -----------------------------------------------------------
      -----------------------------------------------------------
++++++++++++++++++++++++++++++++++++++++++++++++++++++++++++++++++++++++++++++

Part 3			From 1:41 to 2:47

Gtr 2: (clean sound)
      -----------------------------------------------------------
      -----------------------------------------------------------
      ----------------------7--5------5--------55-44-------------
      --9--9--9-9--9--9-9-9--7--7-5h7--7-7-5h7---------and repeat
      -7-77-77-7-77-77-7-7-0--0--0---0--0-0---0------------------
      0----------------------------------------------------------

Gtr 1: (distorted, in slashes)
      -----------------------------------------------------------
      -----------------------------------------------------------
      --------22222222-2222222-2222------------------------------
      2222222222222222-2222222-22222222--------------------------
      2222222200000000-0000000-00003322--------------------------
      00000000--------3-------3----------------------------------
+++++++++++++++++++++++++++++++++++++++++++++++++++++++++++++++++++++++++++++++

Part 4 			From 2:48 to 3:17

Gtr 1:
      -----------------------------------------------------------
      -----------------------------------------------------------
      -----------------------------------------------------------
      2---9-5---7-9------6---------------------------------------
      2---7-3-6-5-7-6-44-4-4--------repeat-----------------------
      0/--0---4-----4-22---2-------------------------------------

Gtr 2:

      -----------------------------------------------------------
      -----------------------------------------------------------
      9-9-7----7-------------------------------------------------
      -----9-10-9-7-7-6-6----repeat------------------------------
      -----------------------------------------------------------
      -----------------------------------------------------------

+++++++++++++++++++++++++++++++++++++++++++++++++++++++++++++++++++++++++++++++++

Part 5 			From 3:18 to 4:16

Gtr 2 (clean, lead guitar)
      -----------------------------------------------------------
      -----------------------------------------------------------
      12-11-12-11--9--9--9-9-9-9-12-11-12-11--9--9-9-9-7-7-------
      -----------10-10--9-9-9-9-------------10-10-9-9-7-7--------
      -----------------------------------------------------------
      -----------------------------------------------------------

      -----------------------------------------------------------
      -----------------------------------------------------------
      12-11-12-11--9--9--9-9-9-9-12-11-12-11--9--9-9-9-12-12-----
      -----------10-10--9-9-9-9-------------10-10-9-9-12-12--repeat...
      -----------------------------------------------------------
      -----------------------------------------------------------

Gtr 1: (Distorted, in slashes, and comes in after 4 bars..)

      -----------------------------------------------------------
      -----------------------------------------------------------
      -----------------------------------------------------------
      2222555522222222------5555------7777-----------------------
      2222333322222222-2222-3333-2222-5555---and repeat
      0000----00000000-0000------0000----------------------------

+++++++++++++++++++++++++++++++++++++++++++++++++++++++++++++++++++++++++++++

Play part 1 again at 4:16 until 5:14, at which point, part 4 is played again, and
after a while, a harmony appears over part 4:

Part 4 Harmony:
      -----------------------------------------------------------
      -----------------------------------------------------------
      -----------------------------------------------------------
      10-10-9---7-9---------------------------------------------
      -------10----10-9-9-10-9-----------------------------------
      -----------------------------------------------------------

  Visit MetalTabs.com for more metal tablature

bottom separator

Contact Us | Privacy Policy | Disclaimer | Legal Notice
Copyright © 2001-2014 MetalTabs.com. All Rights Reserved.