top separator

Home

Forum

What's New

Submit a Tab

FAQ

Links

Contact Us

Link to Us

MetalTabs.com logo

Bands

0-9

A

B

C

D

E

F

G

H

I

J

K

L

M

N

O

P

Q

R

S

T

U

V

W

X

Y

Z

Search

What

Where
 

Katatonia - "Murder" Guitar Tab

Plain Text Version
More Katatonia Tabs

Hits: 10336
Rated: 4.30 out of 5 (10 votes)
Updated: 2003-06-04 14:58:29

 

Important note
This tab is available online because we obtained explicit permission from Katatonia or their label.


#----------------------------------PLEASE NOTE---------------------------------#
#This file is the author's own work and represents their interpretation of the #
#song. You may only use this file for private study, scholarship, or research. #
#Unless specified otherwise, this is NOT an official tab from the band members.#
#------------------------------------------------------------------------------#

  Visit MetalTabs.com for more metal tablature
  
KATATONIA - MURDER
               From the Album - BRAVE MURDER DAY
               Copyright - 1996 AVANTGARDE MUSIC
                     Version 1.0 APRIL 2003


Transcribed by: Heikki B. Huurinainen (huurinhe@paju.oulu.fi)

..  - palm mute          /  - slide up to
 \  - slide down to      ~  - vibrato
 h  - hammer on          b  - bend
 p  - pull off            Suffixes for bend
                          ph - pinch harmonic
                           f - full bend    h - half bend
*  - see comment           r - release      t - tap bend
X  - percussion mute       ~ - vibrato bend
@  - slight palm mute     () - ghost note, sustained note

Tuning Eb (Eb, Ab, Db, Gb, Bb, Eb)

Riff 1
|-------------------|
|-7-7-7-7-7-7-7-7---|
|-9-9-9-9-9-9-9-9---|
|-------------------|
|-------------------|
|-------------------|


Repeat Riff 1 (7 times)


Riff 2.1
|----------------------------------------------------------------------|
|-7-7-7-7-7-7-7-7--7-7-7-7-7-7-7-7--7-8-8-8-8-8-8-8--8-8-8-8-8-8-8-8---|
|-9-9-9-9-9-9-9-9--9-7-7-7-7-7-7-7--7-5-5-5-5-5-5-5--5-5-5-5-5-5-5-5---|
|----------------------------------------------------------------------|
|----------------------------------------------------------------------|
|----------------------------------------------------------------------|
|                                                                      |
|----------------------------------------------------------------------|
|----------------------------------------------------------------------|
|--------------------4-4-4-4-4-4-4--4-5-5-5-5-5-5-5--5-2-2-2-2-2-2-2---|
|-2-2-2-2-2-2-2-2--2-4-4-4-4-4-4-4--4-5-5-5-5-5-5-5--5-2-2-2-2-2-2-2---|
|-2-2-2-2-2-2-2-2--2-2-2-2-2-2-2-2--2-3-3-3-3-3-3-3--3-0-0-0-0-0-0-0---|
|-0-0-0-0-0-0-0-0--0---------------------------------------------------|


Riff 2.2
|----------------------------------------------------------------------|
|-7-7-7-7-7-7-7-7--7-7-7-7-7-7-7-7--7-8-8-8-8-8-8-8--8-8-8-8-8-8-8-8---|
|-9-9-9-9-9-9-9-9--9-7-7-7-7-7-7-7--7-5-5-5-5-5-5-5--5-5-5-5-5-5-5-5---|
|----------------------------------------------------------------------|
|----------------------------------------------------------------------|
|----------------------------------------------------------------------|
|                                                                      |
|----------------------------------------------------------------------|
|----------------------------------------------------------------------|
|--------------------4-4-4-4-4-4-4--4-5-5-5-5-5-5-5--5-2-2-2-2-2-------|
|-2-2-2-2-2-2-2-2--2-4-4-4-4-4-4-4--4-5-5-5-5-5-5-5--5-2-2-2-2-2-------|
|-2-2-2-2-2-2-2-2--2-2-2-2-2-2-2-2--2-3-3-3-3-3-3-3--3-0-0-0-0-0-3-2---|
|-0-0-0-0-0-0-0-0--0---------------------------------------------------|

Riff 3.1
|----------------------------------------------------------------------|
|-7-7-7-7-7-7-7-7--7-8-8-8-8-8-8-8--12--12--12--12---7-7-7-7-7-7-7-7---|
|-9-9-9-9-9-9-9-9--9-9-9-9-9-9-9-9----9---9---9---9--8b9-9-9-9-9-9-9---|
|----------------------------------------------------------------------|
|----------------------------------------------------------------------|
|----------------------------------------------------------------------|
|                                                                      |
|----------------------------------------------------------------------|
|----------------------------------------------------------------------|
|--------------------5-5-5-5-5-5-5--9-9-9-9-9-9-9-9--7-7-7-7-7-7-------|
|-2-2-2-2-2-2-2-2--2-5-5-5-5-5-5-5--9-9-9-9-9-9-9-9--7-7-7-7-7-7-------|
|-2-2-2-2-2-2-2-2--2-3-3-3-3-3-3-3--7-7-7-7-7-7-7-7--5-5-5-5-5-5-3-2---|
|-0-0-0-0-0-0-0-0--0---------------------------------------------------|


Riff 3.2
|----------------------------------------------------------------------|
|-7-7-7-7-7-7-7-7--7-8-8-8-8-8-8-8--12--12--12--12---7-7-7-7-7-7-7-7---|
|-9-9-9-9-9-9-9-9--9-9-9-9-9-9-9-9----9---9---9---9--8b9-9-9-9-9-9-9---|
|----------------------------------------------------------------------|
|----------------------------------------------------------------------|
|----------------------------------------------------------------------|
|                                                                      |
|----------------------------------------------------------------------|
|----------------------------------------------------------------------|
|--------------------5-5-5-5-5-5-5--9-9-9-9-9-9-9-9--7-7-7-7-7-7-7-7---|
|-2-2-2-2-2-2-2-2--2-5-5-5-5-5-5-5--9-9-9-9-9-9-9-9--7-7-7-7-7-7-7-7---|
|-2-2-2-2-2-2-2-2--2-3-3-3-3-3-3-3--7-7-7-7-7-7-7-7--5-5-5-5-5-5-5-5---|
|-0-0-0-0-0-0-0-0--0---------------------------------------------------|


Repeat Riff 2.1 (1 time)

Repeat Riff 2.2 (1 time)

Repeat Riff 3.1 (1 time)

Repeat Riff 3.2 (1 time)


Riff 4.1
|----------------------------------------|
|-10-------------------------------------|
|----9-9-9-9h10-10---------~-------------|
|----------------------------------------|
|----------------------------------------|
|----------------------------------------|
|                                        |
|----------------------------------------|
|----------------------------------------|
|----------------------------------------|
|-6----6----6----6---------6----7----6---|
|-4----4----4----4---------4-------------|
|----------------------------------------|


Riff 4.2
|----------------------------------------|
|-10-------------------------------------|
|----9-9-9-9h10-10---------~-------------|
|----------------------------------------|
|----------------------------------------|
|----------------------------------------|
|                                        |
|----------------------------------------|
|----------------------------------------|
|----------------------------------------|
|-6----6----6----6---------6----6----6---|
|-4----4----4----4---------4----4----4---|
|----------------------------------------|


Repeat Riff 4.1 (1 time)

Repeat Riff 4.2 (1 time)


Riff 5
|------------------------------------------12-----11---|
|-10-----------12---(12)----14-------------------------|
|--------9--10---------------------13--11--------------|
|------------------------------------------------------|
|------------------------------------------------------|
|------------------------------------------------------|
|                                                      |
|------------------------------------------------------|
|------------------------------------------------------|
|------------------------------------------------------|
|--6------------------------6--------------------------|
|--4-----7-----6-----6------4------7-------6------6----|
|--------5-------------------------5-------------------|


Riff 6.1
|------------------------------------------------------------------|
|-10----------12-----------12------10---------12----------12-------|
|------9--10---------------------------9--10-----------------------|
|------------------------------------------------------------------|
|------------------------------------------------------------------|
|------------------------------------------------------------------|
|                                                                  |
|------------------------------------------------------------------|
|------------------------------------------------------------------|
|------------------------------------------------------------------|
|--6---6---6---6-------6---7---6---6---6---6---6-------6---6---6---|
|--4---4---4---4-------4-----------4---4---4---4-------4---4---4---|
|------------------------------------------------------------------|


Riff 6.2
|-------------12-----(12)-11-------------------12------12--11------|
|-14-------------------------------14------------------------------|
|-----13--14---------------------------13--14----------------------|
|------------------------------------------------------------------|
|------------------------------------------------------------------|
|------------------------------------------------------------------|
|                                                                  |
|------------------------------------------------------------------|
|------------------------------------------------------------------|
|------------------------------------------------------------------|
|--6---6---6---6-------6---7---6---6---6---6---6-------6---6---6---|
|--4---4---4---4-------4-----------4---4---4---4-------4---4---4---|
|------------------------------------------------------------------|


Repeat Riff 5 (1 time)


Riff 7
|----------------------------------|
|----------------------------------|
|----------------------------------|
|-----9-------9-------9-------9----|
|---9---9---9---9---9---9---9---9--|
|----------------------------------|
|-0-------8-------0-------8--------|


Repeat Riff 7 (3 times)


Riff 8
|------------------------10-------10-------10-----|
|---12-------12-------12----12-------12-------12--|
|-9--------9--------9-----------9--------9--------|
|-------------------------------------------------|
|-------------------------------------------------|
|-------------------------------------------------|
|                                                 |
|-------------------------------------------------|
|-------------------------------------------------|
|-------------------------------------------------|
|-3--3--3--3--3--3--3--3--3--3--3--3--3--3--3--3--|
|-3--3--3--3--3--3--3--3--3--3--3--3--3--3--3--3--|
|-1--1--1--1--1--1--1--1--1--1--1--1--1--1--1--1--|


Repeat Riff 7 (2 times)

Repeat Riff 8 (1 time)


Riff 9.1
|-------------------------------------------------------------|
|-------------------------------------------------------------|
|---------------------------------------------5-4-----(4)-----|
|-2-----(2)-----7-6-----(6)-----2-----(2)-----5-4-----(4)-----|
|-2-----(2)-----7-6-----(6)-----2-----(2)-----3-2-----(2)-----|
|-0-----(0)-----5-4-----(4)-----0-----(0)---------------------|
                .                             .

Repeat Riff 9.1 (1 time)


Riff 9.2
|-----------------------------------------------------------------------|
|-----------------------------------------------------------------------|
|-----------------------------------------------------5-4-4-4-4-4-4-4-4-|
|-2-2-2-2-2-2-2-2-7-6-6-6-6-6-6-6-6-2-2-2-2-2-2-2-2-2-5-4-4-4-4-4-4-4-4-|
|-2-2-2-2-2-2-2-2-7-6-6-6-6-6-6-6-6-2-2-2-2-2-2-2-2-2-3-2-2-2-2-2-2-2-2-|
|-0-0-0-0-0-0-0-0-5-4-4-4-4-4-4-4-4-0-0-0-0-0-0-0-0-0-------------------|
                  .                                   .

Repeat Riff 9.2 (2 times)

Repeat Riff 1 (4 times)

Repeat Riffs 2 and 3 until fadeout. Play the same pattern as in the beginning twice.
Then on the 3rd repeat fading out starts at the beginning of Riff 3.1.

  Visit MetalTabs.com for more metal tablature

bottom separator

Contact Us | Privacy Policy | Disclaimer | Legal Notice
Copyright © 2001-2014 MetalTabs.com. All Rights Reserved.