top separator

Home

Forum

What's New

Submit a Tab

FAQ

Links

Contact Us

Link to Us

MetalTabs.com logo

Bands

0-9

A

B

C

D

E

F

G

H

I

J

K

L

M

N

O

P

Q

R

S

T

U

V

W

X

Y

Z

Search

What

Where
 

Whiplash - "Walk The Plank" Guitar Tab

Plain Text Version
More Whiplash Tabs

Hits: 4246
Rated: 2.00 out of 5 (1 vote)
Updated: 2003-06-04 14:31:36

 

By:

Kramer

sendpm.gif

email.gif

Important note
We did our best to reach Whiplash and ask for their permission to publish this tab. Unfortunately they did not respond to our requests or we could not find a way to contact them. This tab is available online until Whiplash tells us to take it down.


#----------------------------------PLEASE NOTE---------------------------------#
#This file is the author's own work and represents their interpretation of the #
#song. You may only use this file for private study, scholarship, or research. #
#Unless specified otherwise, this is NOT an official tab from the band members.#
#------------------------------------------------------------------------------#

  Visit MetalTabs.com for more metal tablature
  
Whiplash "Walk the Plank" from TICKET TO MAYHEM (1987)

Tabbed by Kramer
E-mail: Pantera9560@aol.com (Use the song & band name as the subj.)

Tuning: DADGAD

R.I.P. Tony Bono

Riff 1 twice
D-8/7/8/7/8/7------8/7/8/7/8/7--8---8/7/8/7/8/7------8/7/8/7--10/9/10--
A-6/5/6/5/6/5--8---6/5/6/5/6/5--6---6/5/6/5/6/5--8---6/5/6/5---8/7/8---
D--------------8---------------------------------8---------------------

Riff 1 ending 1
A-5--5--6--5--5--3--3--5--3--1--1--3--1--0--1--0--

Riff 2A twice
D---------------8-8-----------------8-8-8---
A-555655855655--6-6---555655855655--6-6-6---

Riff 2B twice
D-000100300100--------000100300100----------
(w/ pick tapping on 12th fret)
A-------------------------------------------
G-------------------------------------------
D---------------8-8-----------------8-8-8---
A---------------6-6-----------------6-6-6---

Riff 2A 4x
Riff 1 twice

Riff 1 ending 2
A-0--------1-1-0--------1-1-1--0-------1-1---0---------------1-1-1----
D-0--------1-1-0--------1-1-1--0-------1-1---0---------------1-1-1----

Riff 2A 4x
Riff 1 twice

Riff 3 twice
D-7----------0--8--0--------------7----------0--8--0---9---10---9---
A-5---------------------7--8--7---5--------------------7----8---7---
D-----00-00-------------7--8--7-------00-00-------------------------

Riff 4 twice
D-7-------------------7--7--2--3-------------------3--3--2-------------------------------
A-5-------------------5--5--0--1--11-11-11-11-11---1--1--0--5------------------3--3--2--0
D----00-00-00-00-00-----------------------------------------5--55-55-55-55-55--3--3--2--0

D-00-00-00-00-00--

Riff 1 twice

Riff 1 ending 3
D-------------3--3--5--3--5--5--5--7--5-----------
A-5--5--6--5-----------------------------0--1--0--

Riff 3 twice
Riff 2B twice
Riff 2A 4x
Riff 1 twice
Riff 3 4x
Riff 2A once

Riff 2C twice
G---------------5-5-----------------5-5-5---
D-222322522322--3-3---222322522322--3-3-3---

Riff 1 ending 3 then play D5 chord

  Visit MetalTabs.com for more metal tablature

bottom separator

Contact Us | Privacy Policy | Disclaimer | Legal Notice
Copyright © 2001-2014 MetalTabs.com. All Rights Reserved.