top separator

Home

Forum

What's New

Submit a Tab

FAQ

Links

Contact Us

Link to Us

MuSpy.com

MetalTabs.com logo

Bands

0-9

A

B

C

D

E

F

G

H

I

J

K

L

M

N

O

P

Q

R

S

T

U

V

W

X

Y

Z

Search

What

Where
 

Nile - "Sarcophagous" Guitar Tab

Plain Text Version
More Nile Tabs

Hits: 4990
Rated: 2.50 out of 5 (6 votes)
Updated: 2003-06-04 14:25:07

 

Important note
This tab is available online because we obtained explicit permission from Nile or their label.


#----------------------------------PLEASE NOTE---------------------------------#
#This file is the author's own work and represents their interpretation of the #
#song. You may only use this file for private study, scholarship, or research. #
#Unless specified otherwise, this is NOT an official tab from the band members.#
#------------------------------------------------------------------------------#

  Visit MetalTabs.com for more metal tablature
  
song:Sarcophagus
by: Nile
album:In their darken shrines
copyright: relapse records , 2002
Version 1.0   04/07/2003
Tabbed by: EDDIE

send corrections to edwardthegreat2003@yahoo.com
Go to www.dissector.cjb.net

this song has many variations of certain rifts and I didn't put all of
them in also I missed some of the runs and rifts in the middle of the
song but most of it is there

h-hamer on            .-palm mute
p-pull off
b-bend

down tune a step
intro
|---------------------------------------------------------------------|
|---------------------------------------------------------------------|
|---10p-9p-8p-7---6-4-6b-------5-7-8-8-7-5----5b-5-5-7-8--------------|
|------------------------------------------8--------------------------|
|--------------------------0------------------------------------------|
|--------------------------0------------------------------------------|


|-------------------------------------------------------------|
|-------------------------------------------------------------|
|---10p-9p-8p-7---6-4-3-2-3h-4p-3--7-6------------------------|
|----------------------------------------------------3--------|
|----------------------------------------------------5--------|
|-------------------------------------------------------------|

verse
|---------------------------------------------|
|---------------------------------------------|
|---------------------------------------------|
|---9--7--9-b--------2-----5-----3------------|
|---7--5--7-b-----0--0--0--3--0--1------------|
|-----------------0--0--0--3--0--1------------|
                  .     .     .

|-------------------------------------|
|-------------------------------------|
|--9--7--9-b--------------------------|
|--7--5--7-b--------2--5--4-----------|
|----------------0--0--3--2-----------|
|----------------0--0--3--2-----------|
                 .


|-------------------------------------------|
|-------------------------------------------|
|--9--7--9-b--------------------------------|
|--7--5--7-b--------2-----5-----3-----------|
|----------------0--0--0--3--0--1-----------|
|----------------0--0--0--3--0--1-----------|
                 .     .     .

|--------------------------|
|--------------------------|
|--------------------------|
|-2--5--5--4--3--3--2------|
|-0--3--3--2--1--1--0------|
|-0--3--3--2--1--1--0------|


|--------------------|
|--------------------|
|--------------------|
|--------------------|
|-5-5~-4~-3~-3~-2~---|
|--------------------|

|--------------------------|
|--------------------------|
|-7-7~-6-5~-5h-6p-5-4~-----|
|--------------------------|
|--------------------------|
|--------------------------|

|-----------------------|
|-----------------------|
|-----------------------|
|-----------------------|
|-0-0-1-/-5-5-\-3-3-\-1-|
|-0-0-1-/-5-5-\-3-3-\-1-|
  . .

|------------------------|
|------------------------|
|-------------9-8-12-12~-|
|-9p-8p-6-5-4------------|not sure about this one
|------------------------|
|------------------------|

blah blah blah bunch of stuff i missed

|----------------------|
|----------------------|
|----------------------|
|----------------------|
|--------6-5~-3-3-3-5--|
|----------------------|
           ^
     there is some slide or hameron hear i couldn't get
|-------------------------|
|-------------------------|
|-7-/-9-9-----------------|
|-5-/-7-7-10-9-7-7-7-/-9b-|
|---------8 -7-5-5-5-/-7b-|
|-------------------------|
                      ^
     there is some slide or hameron hear i couldn't get

|------------------------|
|------------------------|
|-7h-9-9-7h-9-7-11b*-9-9-|
|------------------------|
|------------------------|
|------------------------|
b*slight bend

  Visit MetalTabs.com for more metal tablature

bottom separator

Contact Us | Privacy Policy | Disclaimer | Legal Notice
Copyright © 2001-2014 MetalTabs.com. All Rights Reserved.