top separator

Home

Forum

What's New

Submit a Tab

FAQ

Links

Contact Us

Link to Us

MuSpy.com

MetalTabs.com logo

Bands

0-9

A

B

C

D

E

F

G

H

I

J

K

L

M

N

O

P

Q

R

S

T

U

V

W

X

Y

Z

Search

What

Where
 

Saturnus - "Drown my sorrow" Guitar Tab

Plain Text Version
More Saturnus Tabs

Hits: 5007
Rated: 5.00 out of 5 (2 votes)
Updated: 2003-06-04 14:22:13

 

By:

Father Death

sendpm.gif

email.gif

Important note
This tab is available online because we obtained explicit permission from Saturnus or their label.


#----------------------------------PLEASE NOTE---------------------------------#
#This file is the author's own work and represents their interpretation of the #
#song. You may only use this file for private study, scholarship, or research. #
#Unless specified otherwise, this is NOT an official tab from the band members.#
#------------------------------------------------------------------------------#

  Visit MetalTabs.com for more metal tablature
  
Band:  SATURNUS
Album: Martyre
Song:  Drown my Sorrow

Transcribed by:	Chris Humeniuk
Email:  father_death_666@hotmail.com

Tuning:	1.5 steps down

Keys:
  h  - hammer on
 / \ - slide
  p  - pull off
 x\\ - pick scrape
  x  - mute
  b  - bend
  r  - release bend


INTRO:
(lots of reverb - sweep picking)
|------------------------------------------------------|
|-1--0----------------------1--0-----------------------|
|-2--------0-----0------0---2--------0-----0-----0-----|
|-2-----0-----5----5-5----5-2-----0-----5----5-4---4-2-|
|-0-----0-----2------2------0-----0-----2------2-------|
|-------------0------0------------------0------0-------| 2x


VERSE:
(GTR 1)
|--------------------|
|-5------------------|
|-5----7-------------|
|-7----7----2--------|
|-7----5----2--------|
|-5----5----0--------| 4x

(GTR 2)
|-----------------------------------------------------------
|-0h12-12--10/13--------------------------------------------
|-----------------------9----------9h11--11h12-9------------
|--------------------------------9--------------------------
|-----------------------------------------------------------
|-----------------------------------------------------------

 -------------------------------------------------|
 ---------------7-----------------------------x\\-|
 -----------8p7---9---------------------------x\\-|
 -------7h9-----------------------------------x\\-|
 -------------------------------------------------|
 -------------------------------------------------|


CHORUS:
(GTR 1)
|-------------------------------------------------------------|
|------------------------------------------------0--------0---|
|--------------------------------------------------4--------4-|
|-2---5-0---4-4---4-9--9/10\9-7-2---5-0---4-2--2-----2--2-----|
|-3-----2-----5-----7-----------3-----2-----------------------|
|-------------------------------------------------------------|

(GTR 2)
|-------------------------------------------------------------|
|-------------------------------------------------------------|
|-------------------------------------------9--------9--------|
|-2-0---0-0---4-0---9-----------2-0---0-0---x--------x--------|
|-3-----2-----5-----7--9/10\9-7-3-----2-----7--------7--------|
|-------------------------------------------------------------| 2x

(GTR 1)
|-------------------------------------------------------------|
|------------------------------------------------0--------0---|
|--------------------------------------------------4--------4-|
|-2---5-0---4-4---4-9--9/10\9-7-2---5-0---4-2--2-----2--2-----|
|-3-----2-----5-----7-----------3-----2-----------------------|
|-------------------------------------------------------------|

(GTR 2)
|-------------------------------------------------------------|
|-------------------------------------------------------------|
|-------------------------------------------9--------9--------|
|-2-0---0-0---4-0---9-----------2-0---0-0---x--------x--------|
|-3-----2-----5-----7--9/10\9-7-3-----2-----7--------7--------|
|-------------------------------------------------------------|

(GTR 3)
|----------------------------------------------------0--------|
|-----0-----0-----0-----------------0-----0--------0------0---|
|------------------------------------------------4----------4-|
|---2-----0-----4---9--9/10\9-7---2-----0---2--2--------2-----|
|-3-----2-----5-----7-----------3-----2-----------------------|
|-------------------------------------------------------------|

(GTR 1)
|----------------------------------------------------0--------|
|--------------------------------------------------0----------|
|------------------------------------------------4------------|
|-2---5-0---4-4---4-9--9/10\9-7-2---5-0---4-2--2--------------|
|-3-----2-----5-----7-----------3-----2-----------------------|
|-------------------------------------------------------------|

(GTR 2)
|-------------------------------------------------------------|
|-------------------------------------------------------------|
|-------------------------------------------9--------9--------|
|-2-0---0-0---4-0---9-----------2-0---0-0---x--------x--------|
|-3-----2-----5-----7--9/10\9-7-3-----2-----7--------7--------|
|-------------------------------------------------------------|

(GTR 3)
|----------------------------------------------------0--------|
|-----0-----0-----0-----------------0-----0--------0----------|
|------------------------------------------------4------------|
|---2-----0-----4---9--9/10\9-7---2-----0---2--2--------------|
|-3-----2-----5-----7-----------3-----2-----------------------|
|-------------------------------------------------------------|


VERSE:
(GTR 1)
|--------------------|
|-5------------------|
|-5----7-------------|
|-7----7----2--------|
|-7----5----2--------|
|-5----5----0--------| 8x

(GTR 2)
|-----------------------------------------------------------
|-13-12-12----------------------------7---------7-----------
|-----------14p12--------9--------8p7---9---8p7---9---------
|-----------------------------7h9---------------------------
|-----------------------------------------------------------
|-----------------------------------------------------------

 ---------------------------------------------------------------------------
 --------------------------10/12-12----13\10---/13--12-------12-------------
 ---9h11---11/12---12/14-------------------------------------------12----9--
 -9------9-------9-------9--------------------------------------------------
 ---------------------------------------------------------------------------
 ---------------------------------------------------------------------------

 -----------------------------------------------------------------
 --------------------/12---10---8h10p8----------------------------
 ---12p9---12p9------------------------11---12p11-9h11p9--11-9----
 -----------------------------------------------------------------
 -----------------------------------------------------------------
 -----------------------------------------------------------------

 ---------------------------------------------------------------------------
 -8/10-10--10h11p10------------12-13--13-13-15--12h13-12----12-12h13-12-----
 -------------------9/12-14-------------------------------14----------------
 ---------------------------------------------------------------------------
 ---------------------------------------------------------------------------
 ---------------------------------------------------------------------------

 ---------------------------------------------------|
 ----12h13-12-----------------------------------x\\-|
 -14----------------15p14p12--------------------x\\-|
 ---------------------------14---12/14----------x\\-|
 ---------------------------------------------------|
 ---------------------------------------------------|


CHORUS


BRIDGE:
(GTR 1)
|----------------------------------------------------------------|
|----------------------------------------------------------------|
|----------------------------------------------------------------|
|-9--9----7/9-9-9--9--9----7/9-9-9--7--7-7-/10--10-10-9--9----7--|
|-7--7--7-5/7-7-7--7--7--7-5/7-7-7--x--x-x---x---x--x-7--7--7-5--|
|-7--7--7-5/7-7-7--7--7--7-5/7-7-7--5--5-5--/8---8--8-7--7--7-5--| 6x
        _                _                                 _

(GTR 2)
|-------------------------------------------------------------
|--------------------------13-13-15-12------------------------
|-------12----12h14-14br-----------------15p14p12-------------
|-12h14----14------------------------------------14--12/14----
|-------------------------------------------------------------
|-------------------------------------------------------------

 -----------------------------------------------------------------
 --------------------------13-13-15-12---12/13\12/13-12\10-8/10---
 -------12----12h14-14br------------------------------------------
 -12h14----14-----------------------------------------------------
 -----------------------------------------------------------------
 -----------------------------------------------------------------

 -----------------------------------------------------------------------------
 ---10------12----12----------------------------------------------------------
 -9----11-9-----9-----9\7-7----------12----12h14-12---------12----12h14-------
 ------------------------------12h14----14------------12h14----14-------12h14-
 -----------------------------------------------------------------------------
 -----------------------------------------------------------------------------

 -------------------------------------------------------------------------
 -------------------------------------------------------------------------
 --------------------------------------------------14br-12h14-14b-14b-12--
 ---------------------------------12-/14-17-14----------------------------
 ---12\10-10/12-14--15--14--12h14-----------------------------------------
 -------------------------------------------------------------------------

 -------------------------------------------------------------
 ---------------------15-12---15-12--\-/12-12-12-12-12-12-12\-
 -14br-12h14-14b-12--------------------/12-12-12-12-12-12-12\-
 -------------------------------------------------------------
 -------------------------------------------------------------
 -------------------------------------------------------------

 -----------------------------------------------------------------------
 -/17-17-17-17-17-17-17\--/17-17-17-17-17-17-17\------------------------
 -/16-16-16-16-16-16-16\--/16-16-16-16-16-16-16\--9h11-12p11-9h11-9\7/9-
 -----------------------------------------------------------------------
 -----------------------------------------------------------------------
 -----------------------------------------------------------------------

 ---------------------|
 --------10hh11-10----|
 -11-9----------------|
 ---------------------|
 ---------------------|
 ---------------------|

VERSE:
(GTR 1)
|--------------------|
|-5------------------|
|-5----7-------------|
|-7----7----2--------|
|-7----5----2--------|
|-5----5----0--------| 8x

(GTR 2)
|-------------------------------------------------------------
|-------------------------------12/13--12h13-10--12-----------
|-9-----------------------------------------------------------
|-----------------------------9-------------------------------
|-------------------------------------------------------------
|-------------------------------------------------------------

 -------------------------------------------------------------------
 ------------------------------------------10/12--------------------
 --------------------------12---------------------14--12------------
 -------12----12-----12h14----14-------------------------14---------
 -12h14----14----14-------------------------------------------------
 -------------------------------------------------------------------

 -----------------------------------------------------------------------
 -----------------------------------------------------------------------
 -14/16--14\12---------------------------/16--12---------12-------------
 --------------16\14-----12---/14-14--------------14--------14----12h14-
 -----------------------------------------------------------------------
 -----------------------------------------------------------------------

 ----------------------------------------------------------------------
 --12br-------------------------------12br-----12br--------------------
 -------11/12--12\11-9h11-9-----11-9-------11-------12--12\11-12\11-9--
 ----------------------------------------------------------------------
 ----------------------------------------------------------------------
 ----------------------------------------------------------------------

 ----------------------------------------------------------------------|
 ----------/12--10--------------10/12------------------------------x\\-|
 --------9----------12-9---9-9---------12\9--------11-br--9--------x\\-|
 -----------------------------------------------12-----------------x\\-|
 ----------------------------------------------------------------------|
 ----------------------------------------------------------------------|


CHORUS

fin

  Visit MetalTabs.com for more metal tablature

bottom separator

Contact Us | Privacy Policy | Disclaimer | Legal Notice
Copyright © 2001-2014 MetalTabs.com. All Rights Reserved.