top separator

Home

Forum

What's New

Submit a Tab

FAQ

Links

Contact Us

Link to Us

MuSpy.com

MetalTabs.com logo

Bands

0-9

A

B

C

D

E

F

G

H

I

J

K

L

M

N

O

P

Q

R

S

T

U

V

W

X

Y

Z

Search

What

Where
 

Pestilence - "Suspended Animation" Guitar Tab

Plain Text Version
More Pestilence Tabs

Hits: 4703
Updated: 2003-06-04 14:19:19

 

Important note
This tab is available online because we obtained explicit permission from Pestilence or their label.


#----------------------------------PLEASE NOTE---------------------------------#
#This file is the author's own work and represents their interpretation of the #
#song. You may only use this file for private study, scholarship, or research. #
#Unless specified otherwise, this is NOT an official tab from the band members.#
#------------------------------------------------------------------------------#

  Visit MetalTabs.com for more metal tablature
  
Artist:	Pestilence
Album:	Consuming Impulse
Song:	Suspended Animation

Copyright (c) Roadrunner 1989
Version 1.0 - 06. April. 2003

Transcribed by: Daniel F. (lokis_vault@gmx.net)

For exact timing and order listen to the song.
For corrections, suggestions ...etc contact my e-mail-address

.  - palm mute
b  - bend
h  - hammer on
/  - slide up to
\  - slide down
ph - pinched harmonic

Tuning D G C F A D

1)

|-------------------------------------------------------------------|
|-------------------------------------------------------------------|
|-------------------------------------------------------------------|
|-------------------------------------------------------------------|
|-2---2-3---3-2--2-2-3/5/6\5\3/3-3----------------------------------|
|-0---0-1---1-0--0-0-1/3/4\3\1/5-3----------------------------------|
      .     .    . .

Riff 1  5x


2)

|-------------------------------------------------------------------|
|-------------------------------------------------------------------|
|-------------------------------------------------------------------|
|-2------3-2------3-2------3-3----4----3----------------------------|
|------3--------3--------3------------------------------------------|
|---00-------00-------00-------11---22------------------------------|
    ..       ..       ..       ..   ..

Riff 2  4X


3)

|-------------------------------------------------------------------|
|-------------------------------------------------------------------|
|------------------------3------------------------------------------|
|----------------------3-1------------------------------------------|
|-2---3--3/5-3-3-3-3-5-1--------------------------------------------|
|-0---1--1/3-1-1-1-1-3----------------------------------------------|
             . . . .
Riff 3  4x


|---------------------|
|---------------------|
|---------------------|
|-3------4-3------4-3-|
|------4--------4-----|
|---00-------00-------|
    ..       ..

Riff 2  4x
Riff 1  4x


|-------------------------------------------------------------------|
|-------------------------------------------------------------------|
|-------------------------------------------------------------------|
|-------------------------------------------------------------------|
|-6-5---5-3--3----2-------------------------------------------------|
|-4-3---3-1--1----0-------------------------------------------------|


4)

played in 2 variations
|-------------------------------------------------------------------|
|-------------------------------------------------------------------|
|-------------------------------------------------------------------|
|--------5------5h6----------3/5-5/6-6\5------5h6p-------3--2-------|
|-------------------------------------------------------------------|
|---0000---0000-----00000000-------------0000-------0000------------|
    ....   ....     ........             ....       ....

Riff 4  6x


5)
           3x                          1x
|---------------------------|---------------------------------------|
|---------------------------|---------------------------------------|
|---------------------------|---------------------------------------|
|----------------3---3---3--|----------------5---5---5--------------|
|-2--2-222-222-2-1---1---1--|-2--2-222-222-2-3---3---3--------------|
|-0--0-000-000-0---0---0----|-0--0-000-000-0---0---0----------------|
     . ... ....   .   .          . ... ... .   .   .

Riff 5  2x


6)

same as 2, just a half step higher
|-------------------------------------------------------------------|
|-------------------------------------------------------------------|
|-------------------------------------------------------------------|
|-3------4-3------4-3------4-4----5----4----------------------------|
|------4--------4--------4------------------------------------------|
|---11-------11-------11-------22---33------------------------------|
    ..       ..       ..       ..   ..

Riff 6  4x
Riff 3  4x
Riff 1  4x


End

  Visit MetalTabs.com for more metal tablature

bottom separator

Contact Us | Privacy Policy | Disclaimer | Legal Notice
Copyright © 2001-2014 MetalTabs.com. All Rights Reserved.