top separator

Home

Forum

What's New

Submit a Tab

FAQ

Links

Contact Us

Link to Us

MuSpy.com

MetalTabs.com logo

Bands

0-9

A

B

C

D

E

F

G

H

I

J

K

L

M

N

O

P

Q

R

S

T

U

V

W

X

Y

Z

Search

What

Where
 

Pestilence - "Dehydrated" Guitar Tab

Plain Text Version
More Pestilence Tabs

Hits: 6179
Updated: 2003-06-04 14:18:43

 

Important note
This tab is available online because we obtained explicit permission from Pestilence or their label.


#----------------------------------PLEASE NOTE---------------------------------#
#This file is the author's own work and represents their interpretation of the #
#song. You may only use this file for private study, scholarship, or research. #
#Unless specified otherwise, this is NOT an official tab from the band members.#
#------------------------------------------------------------------------------#

  Visit MetalTabs.com for more metal tablature
  
Band:  Pestilence
Album: Consuming Impulse
Song:  Dehydrated

Copyright (c)  Roadrunner 1989
Version 1.0 - 06. April. 2003

Transcribed by: Daniel F. (lokis_vault@gmx.net)

For exact timing and order listen to the song.
For corrections, suggestions ...etc contact my e-mail-address

Tune down one whole step to "D"

.  - palm mute
b  - bend
h  - hammer on
\  - slide down
ph - pinched harmonic


1)

|-------------------------------------------------------------------|
|-------------------------------------------------------------------|
|-------------------------------------------------------------------|
|-------------------------------------------------------------------|
|-------------------------------------------------------------------|
|-00001111222211113333222211112222----------------------------------|

Riff 1  12x


2)

|-------------------------------------------------------------------|
|-------------------------------------------------------------------|
|-------------------------------------------------------------------|
|-------------------------------------------------------------------|
|-------------------------------------2-----------------------------|
|-7-000-7650--7-000-7650--7-000-7650----4-3-4-3-2-------------------|
  . ... ....  . ... ....  . ... ....  . . . . . .

Riff 2  4x
Riff 1  4x


3) not sure about that ... sounds ok

|-------------------------------------------------------------------|
|-------------------------------2------------------------6-------8--|
|---------------1-------0-0h1h2------------------4-4h5h6---6h7h8----|
|---------1h2h3---0h1h2--------------------1h2h3--------------------|
|-2-2-2-2--------------------------2-2-2-2--------------------------|
|-0-0-0-0--------------------------0-0-0-0--------------------------|
  . . . .                          . . . .

Riff 3  4x


4)

|-------------------------------------------------------------------|
|-------------------------------------------------------------------|
|--------------3----------------------------------------------------|
|-3--5---4--3-------------------------------------------------------|
|-3--5---4--3--2----------------------------------------------------|
|-1--3---2--1--0----------------------------------------------------|


Riff 4  8x
Riff 2  4x


5)

|-------------------------------------------------------------------|
|-------------------------------------------------------------------|
|-------------------------------------------------------------------|
|----3-----4--------------------------------------------------------|
|-2--1--2--2--2--5--2-2-4-------------------------------------------|
|-0-----0-----0--3--1-1-2-------------------------------------------|
                    . .
Riff 5  8x
Riff 2  8x
Riff 5  8x


END

  Visit MetalTabs.com for more metal tablature

bottom separator

Contact Us | Privacy Policy | Disclaimer | Legal Notice
Copyright © 2001-2014 MetalTabs.com. All Rights Reserved.