top separator

Home

Forum

What's New

Submit a Tab

FAQ

Links

Contact Us

Link to Us

MetalTabs.com logo

Bands

0-9

A

B

C

D

E

F

G

H

I

J

K

L

M

N

O

P

Q

R

S

T

U

V

W

X

Y

Z

Search

What

Where
 

Katatonia - "I break" Guitar Tab

Plain Text Version
More Katatonia Tabs

Hits: 6177
Rated: 2.80 out of 5 (5 votes)
Updated: 2001-06-15 13:17:01

 

Important note
This tab is available online because we obtained explicit permission from Katatonia or their label.


#----------------------------------PLEASE NOTE---------------------------------#
#This file is the author's own work and represents their interpretation of the #
#song. You may only use this file for private study, scholarship, or research. #
#Unless specified otherwise, this is NOT an official tab from the band members.#
#------------------------------------------------------------------------------#

  Visit MetalTabs.com for more metal tablature
  
KATATONIA "I Break"
Discouraged Ones
Tabbed by: Drew Schinzel <analogkid82@yahoo.com>


Tuning: Eb (all strings down a half step)


 riff 1
|-------------------------------------------------------------------------|
|-------------------------------------------------------------------------|
|-------------------------------------2-2-2-2--2-2-2-----------2-2-2-2-2--|
|-2-2-2-2--2-2-2-2--2-2-2-2--2-2-2-5--2-2-2-2--2-2-2--5-5-5-5--2-2-2-2-2--|
|-2-2-2-2--2-2-2-2--2-2-2-2--2-2-2-5--0-0-0-0--0-0-0--5-5-5-5--0-0-0-0-0--|
|-0-0-0-0--0-0-0-0--0-0-0-0--0-0-0-3------------------3-3-3-3-------------|

 riff 2
|------------------------------------------------|
|------------------------------------------------|
|------------------------------------------------|
|--6--6----6--6---6-6----4-4---------------------|
|--6--6----6--6---6-6----4-4---4-5--2-2--4-4-4---|
|--4--4----4--4---4-4----2-2---------------------|

 riff 3
|------------------------------------------------------------------------------|
|------------------------------------------------------------------------------|
|--9-9-9-9-9-9-9-9--5-5-5-5-5-5-5-5--12-12-12--9-9-9-9-9--10-10-10--9-9-9-9-9--|
|--9-9-9-9-9-9-9-9--5-5-5-5-5-5-5-5--12-12-12--9-9-9-9-9--10-10-10--9-9-9-9-9--|
|--7-7-7-7-7-7-7-7--3-3-3-3-3-3-3-3--10-10-10--7-7-7-7-7--8--8--8---7-7-7-7-7--|
|------------------------------------------------------------------------------|

 riff 4
|--------------------------------------------------------------------|
|--------------------------------------------------------------------|
|-9-9-9-9-9-9-9-9-9-9-9-9-9--4-4/5-----------------------------------|
|-9-9-9-9-9-9-9-9-9-9-9-9-9--4-4/5--2-2-2-2-2-2-2-2-2-2-2-2-2-2-2-2--|
|-7-7-7-7-7-7-7-7-7-7-7-7-7--2-2/3--2-2-2-2-2-2-2-2-2-2-2-2-2-2-2-2--|
|-----------------------------------0-0-0-0-0-0-0-0-0-0-0-0-0-0-0-0--|

  Visit MetalTabs.com for more metal tablature

bottom separator

Contact Us | Privacy Policy | Disclaimer | Legal Notice
Copyright © 2001-2014 MetalTabs.com. All Rights Reserved.