top separator

Home

Forum

What's New

Submit a Tab

FAQ

Links

Contact Us

Link to Us

MetalTabs.com logo

Bands

0-9

A

B

C

D

E

F

G

H

I

J

K

L

M

N

O

P

Q

R

S

T

U

V

W

X

Y

Z

Search

What

Where
 

The Abyss - "Marutukku" Guitar Tab

Plain Text Version
More The Abyss Tabs

Hits: 3376
Rated: 3.33 out of 5 (3 votes)
Updated: 2003-06-01 11:58:53

 

Important note
We did our best to reach The Abyss and ask for their permission to publish this tab. Unfortunately they did not respond to our requests or we could not find a way to contact them. This tab is available online until The Abyss tells us to take it down.


#----------------------------------PLEASE NOTE---------------------------------#
#This file is the author's own work and represents their interpretation of the #
#song. You may only use this file for private study, scholarship, or research. #
#Unless specified otherwise, this is NOT an official tab from the band members.#
#------------------------------------------------------------------------------#

  Visit MetalTabs.com for more metal tablature
  
Band:  The Abyss
Album: The Other Side
Song:  Marutukku
Transcribed By: Luis Zelaya
Email:       Subconcious_death@yahoo.com
look for more transcriptions in this site


Tunning E B G D A E


riff 1 a(gtr1)
|-------------------------------------------------------------------|
|-------------------------------------------------------------------|
|-------------------------------------------------------------------|
|-------------------------------------------------------------------|
|--4 4 4 4 4 4 4 4-0-0-0-0-0-0 0-0-4-4-4-4-4-4-0-0-0-0-0-0----------|
|---------------------------------------------------------4-4-4-4---|
riff 2(gtr2) play after guitar 1 plays r1a 2x
|-------------------------------------------------------------------|
|-------------------------------------------------------------------|
|------8"--7"---------7"--------------------------------------------|
|--7"---------8"--7"------7"--8"------------------------------------|
|-------------------------------------------------------------------|
|-------------------------------------------------------------------|
riff 3 (gtr1) play after gtr2 plays r2 2x
|-------------------------------------------------------------------|
|-------------------------------------------------------------------|
|-------------------------------------------------------------------|
|-------------------------------------------------------------------|
|--4-4-4-4-4-4-4-4-0-0-0-0-0-0-0-0----------------------------------|
|----------------------------------4-4-4-4-4-4-4-4-2-2-2-2-2-2-2-2--|
riff 4 both guitars
|-------------------------------------------------------------------|
|-------------------------------------------------------------------|
|-------------------------------------------------------------------|
|--4-4-4-4-4-4-4-4-0-0-0-0-0-0-0-0-4-4-4-4-4-4-0-0-0-0----------3-(3|
|------------------------------------------------------4-4-4-4--3-(3|
|---------------------------------------------------------------1-(1|
riff 5 (gtr1) with light distortion	`
|-------------------------------------------------------------------|
|-------------------------------------------------------------------|
|-------------------------------------------------------------------|
|-----6-----7-----5-----4-------------------------------------------|
|---6-----7-----5-----4---------------------------------------------|
|-4-----5-----3-----2-----------------------------------------------|
riff 6 (gtr2)play after gtr1 plays r5 2x
|-------------------------------------------------------------------|
|-------------------------------------------------------------------|
|-------------------------------------------------------------------|
|-------------------------------------------------------------------|
|-4-(4)-(4)-0-(0)-(0)-----------------------------------------------|
|---------------------4 (4)-(4)-2-(2)-(2)---------------------------|
riff 7 (gtr1) strum up and down on every note
|-------------------------------------------------------------------|
|-------------------------------------------------------------------|
|-------------------------------------------------------------------|
|-------------------------------------------------------------------|
|-4-4-4-4-4-4-4-4-0-0-0-0-0-0-0-0-----------------------------------|
|---------------------------------4-4-4-4-4-4-4-4-2-2-2-2-2-2-2-2---|
riff 7B (gtr2) at the same time as gtr1 strum up and down
|-------------------------------------------------------------------|
|-------------------------------------------------------------------|
|-------------------------------------------------------------------|
|-4-4-4-4-4-4-4-4-0-0-0-0-0-0-0-0-----------------------------------|
|---------------------------------4-4-4-4-4-4-4-4-2-2-2-2-2-2-2-2---|
|-------------------------------------------------------------------|
riff 8 (gr1)
|-------------------------------------------------------------------|
|-------------------------------------------------------------------|
|-------------------------------------------------------------------|
|-6"---2"---1"------------------------------------------------------|
|-------------------------------------------------------------------|
|-------------------------------------------------------------------|
riff 8B same time as gtr 1
|-------------------------------------------------------------------|
|-------------------------------------------------------------------|
|-6"---2"---1"------------------------------------------------------|
|-------------------------------------------------------------------|
|-------------------------------------------------------------------|
|-------------------------------------------------------------------|
riff 9 both guitars
|-------------------------------------------------------------------|
|-------------------------------------------------------------------|
|-------------------------------------------------------------------|
|--4-4-4-4-4-4-4-4-0-0-0-0-0-0-0-0-4-4-4-4-4-4-0-0-0-0--------------|
|------------------------------------------------------4-4-4-4------|
|-------------------------------------------------------------------|
 i think this how the abyss plays it follow the song to get it
any corrections or any abyss tabs email me at Subconcious_death@yahoo.com

  Visit MetalTabs.com for more metal tablature

bottom separator

Contact Us | Privacy Policy | Disclaimer | Legal Notice
Copyright © 2001-2014 MetalTabs.com. All Rights Reserved.