top separator

Home

Forum

What's New

Submit a Tab

FAQ

Links

Contact Us

Link to Us

MuSpy.com

MetalTabs.com logo

Bands

0-9

A

B

C

D

E

F

G

H

I

J

K

L

M

N

O

P

Q

R

S

T

U

V

W

X

Y

Z

Search

What

Where
 

Whiplash - "King with the axe" Guitar Tab

Plain Text Version
More Whiplash Tabs

Hits: 3299
Updated: 2003-08-01 11:53:13

 

By:

Kramer

sendpm.gif

email.gif

Important note
We did our best to reach Whiplash and ask for their permission to publish this tab. Unfortunately they did not respond to our requests or we could not find a way to contact them. This tab is available online until Whiplash tells us to take it down.


#----------------------------------PLEASE NOTE---------------------------------#
#This file is the author's own work and represents their interpretation of the #
#song. You may only use this file for private study, scholarship, or research. #
#Unless specified otherwise, this is NOT an official tab from the band members.#
#------------------------------------------------------------------------------#

  Visit MetalTabs.com for more metal tablature
  
Whiplash "King With the Axe" from THRASHBACK (1998)

Submitted by Kramer
E-mail: Pantera9560@aol.com

Actually the original version was very accurate, I just needed to fix a couple of very
small mistakes

Riff 1 twice
G---------------------------2------------
D-----------------2--4--5---0------------
A-2--------------------------------------
E-0--------------------------------------

Riff 2 once
D-5--------------------------------------------5-------------0--2--3--2h3p2-------------
A-3------------3--2--3--2h3p2--5---4---2-------3----------3------------------3--2---2---
E------------------------------3---2---0--------------------------------------------0---

Riff 2 ending 6x
G-4p2p0-4p2p0--------
D-------------4p2p0--

Riff 3 twice
G----------------------------------------------------------------------4p2p0-4p2p0-------
D-10--9-------------------------10--9------------------------7---------------------4p2p0-
A--8--7--7-7-7-7-7-7-7-7-7-7-----8--7--7-7-7-7-7-7-7-7-7-7---5---------------------------
E--------0-0-0-0-0-0-0-0-0-0-----------0-0-0-0-0-0-0-0-0-0-------------------------------

D-4p2p0---9------------------------
A---------7--7-7-7-7-7-7-7-7-7-7---
E------------0-0-0-0-0-0-0-0-0-0---

Riff 4 twice
G---------------------------------------------------------7-7-7--9-----------
D-5---------------9------------------9--7--9--------------5-5-5--7---7---9---
A-3---------------7----7-7-7-7-7-7---7--5--7---7-7-7-7-7-------------5---7---
E----------------------0-0-0-0-0-0-------------0-0-0-0-0---------------------

Riff 5 once
D-5-------7-------9---------------------------------5-------7------9--9--9--9--9--9-9--
A-3-------5-------7---7-7-7-7-7-7-7-7-7-7-7-7-7-7---3-------5------7--7--7--7--7--7-7--
E---------------------0-0-0-0-0-0-0-0-0-0-0-0-0-0--------------------------------------

D-5-------7-------9---------------------------------5-------7-------7/
A-3-------5-------7---7-7-7-7-7-7-7-7-7-7-7-7-7-7---3-------5-------5/
E---------------------0-0-0-0-0-0-0-0-0-0-0-0-0-0---------------------

Riff 3 twice
Riff 4 twice
Riff 5 once
Riff 3 twice

Riff 6 6x
D------------------------------------------------5--4------
A----------2-----------2-----0h2-------------2---3--2--5---
E-0-0-0-0--0---0-0-0---0--0--0-0----0-0-0-0--0---------3---

Riff 7 once
D-4--4-4-4-4-4-4-4-4-4-4-4-4---4/5--5-5-5-5-5-5-5-5-5-5-5-5-5---5/4--4-4-4-4-4-4-4-4-4-4-
A-2--2-2-2-2-2-2-2-2-2-2-2-2---2/3--3-3-3-3-3-3-3-3-3-3-3-3-3---3/2--2-2-2-2-2-2-2-2-2-2-

D-5--5-5-5-5---7--7-7-7-7-7---
A-3--3-3-3-3---5--5-5-5-5-5---

Riff 8 once
D-9--9--9--------7--7----5------9---------12---------11---------7-----------9--9--9----
A-7--7--7--------5--5----3------7---------10----------9---------5-----------7--7--7----
E---------------------------------0-0-0-0----0-0-0-0----0-0-0-0---0-0-0-0--------------

D-9--10--9---7--------5---------7-----7/
A-7---8--7---5--------3---------5-----5/

Riff 3 twice
Riff 4 twice
Riff 5 once
Riff 3 twice then strum E5 chord then
D-9--9--10---9---12---10---9----7-----5-----7-----5-----4--------------------------------
A-7--7---8---7---10----8---7----5-----3-----5-----3-----2-----5----4---222222222222222222
E-------------------------------------------------------------3----2---000000000000000000
then slide E5 chord.

  Visit MetalTabs.com for more metal tablature

bottom separator

Contact Us | Privacy Policy | Disclaimer | Legal Notice
Copyright © 2001-2014 MetalTabs.com. All Rights Reserved.