top separator

Home

Forum

What's New

Submit a Tab

FAQ

Links

Contact Us

Link to Us

MetalTabs.com logo

Bands

0-9

A

B

C

D

E

F

G

H

I

J

K

L

M

N

O

P

Q

R

S

T

U

V

W

X

Y

Z

Search

What

Where
 

Ensiferum - "Guardians Of Fate" Guitar Tab

Plain Text Version
More Ensiferum Tabs

Hits: 18750
Rated: 3.58 out of 5 (19 votes)
Updated: 2003-06-01 10:49:52

 

By:

Darkenelf

sendpm.gif

email.gif

Important note
This tab is available online because we obtained explicit permission from Ensiferum or their label.


#----------------------------------PLEASE NOTE---------------------------------#
#This file is the author's own work and represents their interpretation of the #
#song. You may only use this file for private study, scholarship, or research. #
#Unless specified otherwise, this is NOT an official tab from the band members.#
#------------------------------------------------------------------------------#

  Visit MetalTabs.com for more metal tablature
  
Band: Ensiferum
Album: Ensiferum
Song: Guardian of Fate
Tabbed by: Martijn Wietsma (Darkenelf)
Tab Date: 28-03-2003
Email: dalvanian@yahoo.com

Standard E Tuning

. = palm mute
h = use hammer
p = use pick
/ = slide

riff A:
|----------------------------------------------------------------|
|----------------------------------------------------------------|
|----------------------------------------------------------------|
|-------7777--------3333--------7777-----------------------------|
|-5555--5555--3333--1111--3333--5555--5555-----------------------|
|-3333--------1111--------1111--------3333-----------------------|

riff B:
|----------------------------------------------------------------|
|----------------------------------------------------------------|
|----------------------------------------------------------------|
|----------------7----------------3-----------------7------------|
|-------5--555-5-5-------3--111-1-1--------3--555-5-5-----5555---|
|-333-3-3----------111-1-1-----------111-1-1----------333-3333---|
  ... .    ... .   ... .    ... .    ... .    ... .   ...

riff C:
|----------------------------------------------------------------|
|----------------------------------------------------------------|
|----------------4--4------6--666-666----------------------------|
|-4-6-7-6--7-6h7------7p6--4--444-444----------------------------|
|----------------------------------------------------------------|
|----------------------------------------------------------------|
						(4x)
riff D:
|----------------------------------------------------------------|
|----------------------------------------------------------------|
|----------------------------------------------------------------|
|-4-444-6-7-777777-6-7-6--77-6-----------------------------------|
|----------------------------------------------------------------|
|----------------------------------------------------------------|
						(2x)

|----------------------------------------------------------------|
|----------------------------------------------------------------|
|---------------------6-4----------------------------------------|
|-4-444-6-7-777777-6------77-6-----------------------------------|
|----------------------------------------------------------------|
|----------------------------------------------------------------|
						(2x)
riff E:
|----------------------------------------------------------------|
|----------------------------------------------------------------|
|----------------------6-6-4-------------------------------------|
|-4-4-7--6-7-6-4--4-4--------6--6---4----------------------------|
|---------------------------------7------------------------------|
|----------------------------------------------------------------|
						(2x)
riff F:
|----------------------------------------------------------------|
|----------------------------------------------------------------|
|---------------------6-6--4h------------------------------------|
|-4-7-7--7p6p4-4---7---------7p-6-4------------------------------|
|----------------------------------------------------------------|
|----------------------------------------------------------------|
						(4x)
riff C:
|----------------------------------------------------------------|
|----------------------------------------------------------------|
|----------------4--4------6--666-666----------------------------|
|-4-6-7-6--7-6h7------7p6--4--444-444----------------------------|
|----------------------------------------------------------------|
|----------------------------------------------------------------|
						(4x)
riff D:
|----------------------------------------------------------------|
|----------------------------------------------------------------|
|----------------------------------------------------------------|
|-4-444-6-7-777777-6-7-6--77-6-----------------------------------|
|----------------------------------------------------------------|
|----------------------------------------------------------------|
						(2x)

|----------------------------------------------------------------|
|----------------------------------------------------------------|
|---------------------6-4----------------------------------------|
|-4-444-6-7-777777-6------77-6-----------------------------------|
|----------------------------------------------------------------|
|----------------------------------------------------------------|
						(2x)
riff G:
|-----9--7-9-7---------------7h----------------------------------|
|-7-7----------10--7h9-10-10----9--9h10p9h-----7-----------------|
|------------------------------------------10p-------------------|
|----------------------------------------------------------------|
|----------------------------------------------------------------|
|----------------------------------------------------------------|
						(2x)
riff F:
|----------------------------------------------------------------|
|----------------------------------------------------------------|
|---------------------6-6--4h------------------------------------|
|-4-7-7--7p6p4-4---7---------7p-6-4------------------------------|
|----------------------------------------------------------------|
|----------------------------------------------------------------|
						(4x)
riff C:
|----------------------------------------------------------------|
|----------------------------------------------------------------|
|----------------4--4------6--666-666----------------------------|
|-4-6-7-6--7-6h7------7p6--4--444-444----------------------------|
|----------------------------------------------------------------|
|----------------------------------------------------------------|
						(4x)

riff H: (solo)
|-9~-7h--------------7-------------------------------------------|
|-------10p9--7h9h10---10p9-7h9-7-9h10-9p7-----------------------|
|----------------------------------------------------------------|
|----------------------------------------------------------------|
|----------------------------------------------------------------|
|----------------------------------------------------------------|

this part of solo sucks :)
|-15p14p12h---15p14p12h14-17-15p14--15p14p12h--------------------|
|----------15--------------------------------15---etc...---------|
|----------------------------------------------------------------|
|----------------------------------------------------------------|
|----------------------------------------------------------------|
|----------------------------------------------------------------|

riff I:
|----------------------------------------------------------------|
|----------------------------------------------------------------|
|----------------------------------------------------------------|
|------------2-------------2-------------2-----------------------|
|-6----------2--4----------2--6----------2--6--------------------|
|-4-444-444--0--2-222-222--0--4-444-444--0--4--------------------|
    ... ...       ... ...       ... ...
						(2x)
riff F:
|----------------------------------------------------------------|
|----------------------------------------------------------------|
|---------------------6-6--4h------------------------------------|
|-4-7-7--7p6p4-4---7---------7p-6-4------------------------------|
|----------------------------------------------------------------|
|----------------------------------------------------------------|
						(4x)
riff C: (end riff)
|----------------------------------------------------------------|
|----------------------------------------------------------------|
|----------------4--4------6--666-666-----------------666--------|
|-4-6-7-6--7-6h7------7p6--4--444-444-----------------444--------|
|----------------------------------------------------------------|
|----------------------------------------------------------------|
						(4x)

  Visit MetalTabs.com for more metal tablature

bottom separator

Contact Us | Privacy Policy | Disclaimer | Legal Notice
Copyright © 2001-2014 MetalTabs.com. All Rights Reserved.