top separator

Home

Forum

What's New

Submit a Tab

FAQ

Links

Contact Us

Link to Us

MetalTabs.com logo

Bands

0-9

A

B

C

D

E

F

G

H

I

J

K

L

M

N

O

P

Q

R

S

T

U

V

W

X

Y

Z

Search

What

Where
 

Avantasia - "Neverland" Guitar Tab

Plain Text Version
More Avantasia Tabs

Hits: 13689
Rated: 3.67 out of 5 (9 votes)
Updated: 2003-06-01 10:39:26

 

By:

sendpm.gif

email.gif

Important note
This tab is available online because we obtained explicit permission from Avantasia or their label.


#----------------------------------PLEASE NOTE---------------------------------#
#This file is the author's own work and represents their interpretation of the #
#song. You may only use this file for private study, scholarship, or research. #
#Unless specified otherwise, this is NOT an official tab from the band members.#
#------------------------------------------------------------------------------#

  Visit MetalTabs.com for more metal tablature
  
Avantasia

neverland
from album: the metal opera pt2.

Transcribed By: Joni Fred
Email: e0101199@puv.fi
(Suomi-Finland-Perkele!!)

PLEASE DO NOT COPY THIS TAB TO ANOTHER SITE
WITHOUT AUTHORS' PERMISSION.  THANK YOU.


I play it in E tune

main fiff

guitar2
|-------------------------------------------------------------------------------|
|-------------------------------------------------------------------------------|
|---6----------------9----------------4----------2------------------------------|
|---6----------------9----------------4----------2------------------------------|
|---4----------------7----------------2----------0---------------000222444555---|
|-------------------------------------------------------------------------------|

guitar1
|----------5---------------------------------------------h-p---------------------|
|---5^^--78---87------3^------12-10-8-10-7^^-8\12^^--108-81087^^-555777888101010-|
|--------------------------------------------------------------------------------|
|--------------------------------------------------------------------------------|
|--------------------------------------------------------------------------------|
|--------------------------------------------------------------------------------|

|--------5---------------5-3-2------------------|
|--5-7-8---8-7-5-7-5-33-------3-5^^-------------|
|-----------------------------------------------|
|--------4---------------4-2--------------------|
|--4-6-7---7-6-4-6-4-22------52-4^^-------------|
|-----------------------------------------------|



bass before
listen record
    3
|---------------------------------------------|
|---------------------------------------------|
|--444--444---777--------444-444-000-222------|
|------------------777------------------------|

verse riff

|-----------------------|
|-----------------------|
|--6---9-------6--------|
|--6---9--9----6--7--9--|
|--4---7--9----4--7--9--|
|---------7-------5--7--|


pre-chorus

|------------------------------------------------------|
|------------------------------------------------------|
|-----------6---6-----4---4-------------------9--------|
|--6---6----6---6-----4---4-------------------9--------|
|--6---6----444--^^---222--^^---222222444444--7--------|
|--444--^^---------------------------------------------|

chorus

|--------------------|
|--------------------|
|--------------------|
|--------------------|
|--6--9--4--2-2-4----|
|--4--7--2--0-0-2----|
|--------------------|

middle part

|------------------------------------------------------------|
|------------------------------------------------------------|
|------------------------------------------------------------|
|------7---9--10-979h7------7---9--10-979h7--109797----7-----|
|--777---7--7-----------777---7--7------------------10---109-|
|------------------------------------------------------------|


|------------------------------------------------------------|
|------------------------------------------------------------|
|------------------------------------------------------------|
|-----4---6---7-646h4-----4---6---7-646h4-76464-4------------|
|-444---4---4---------444---4---4--------------7--76---------|
|------------------------------------------------------------|

|------------------------------------------------------------|
|------------------------------------------------------------|
|------------------------------------------------------------|
|-----2---4---5-424h2-----2---4---5-424h2-5424-2---2---------|
|-000---0---0---------000---0---0----------------5---54------|
|------------------------------------------------------------|

|------------------------------------------------------------|
|------------------------------------------------------------|
|--------------------------------------2-4-2-----------------|
|-----2---4---5-424h2-----2---4--2-4-5-------5-4-------------|
|-222---2---2---------222---2--------------------------------|
|------------------------------------------------------------|

|-----------------------------------------------------------------------------------------|
|-----------------------------------------------------------------------------------------|
|-----------------------------------------------------------------------------------------|
|----------------------------------------------------------------------------------7-9----|
|-----7---9---10-979h7-----7---9---10-979h7------5---7---9-757h5-----5---7---7-9-10-------|
|-777---7---7----------777---7---7-----------555---5---7---------555---5------------------|

|-----------------------------------------------------------------------------------------|
|-----------------------------------------------------------------------------------------|
|-----------------------------------------------------------------------------------------|
|-----------------------------------------------------------------------------------------|
|-----2---4---5-424h2-----2---4---5-424h2--------5---7---9---7-----5---7--9-7-5-7-5-------|
|-222---2---2---------222---2---2------------777---7---7---7---777---7--------------9-7---|


before outro

|------------------------|
|------------------------|
|------------------------|
|--6-4-2-4-6-4-2-4-------|
|--4-2-0-2-4-2-0-2-------|
|------------------------|


outro chorus

|------------------------------|
|------------------------------|
|--9---12--7--5----5--7--------|
|--9---12--7--5----5--7--------|
|--7---10--5--3----3--5--------|
|------------------------------|

end>>>>>>>>>>>>>>>>>>>>>>>>>>>>>>>>>>>>>>>>>>>>>>>>>>>>>>>>>>>>>>>

  Visit MetalTabs.com for more metal tablature

bottom separator

Contact Us | Privacy Policy | Disclaimer | Legal Notice
Copyright © 2001-2014 MetalTabs.com. All Rights Reserved.