top separator

Home

Forum

What's New

Submit a Tab

FAQ

Links

Contact Us

Link to Us

MuSpy.com

MetalTabs.com logo

Bands

0-9

A

B

C

D

E

F

G

H

I

J

K

L

M

N

O

P

Q

R

S

T

U

V

W

X

Y

Z

Search

What

Where
 

Charon - "Bitter Joy" Guitar Tab

Plain Text Version
More Charon Tabs

Hits: 7988
Rated: 3.00 out of 5 (5 votes)
Updated: 2003-06-01 10:09:32

 

By:

sendpm.gif

email.gif

Important note
This tab is available online because we obtained explicit permission from Charon or their label.


#----------------------------------PLEASE NOTE---------------------------------#
#This file is the author's own work and represents their interpretation of the #
#song. You may only use this file for private study, scholarship, or research. #
#Unless specified otherwise, this is NOT an official tab from the band members.#
#------------------------------------------------------------------------------#

  Visit MetalTabs.com for more metal tablature
  
Charon

Bitter joy
from: downhearted

TRANSCRIBED: Joni Fred
mail: e0101199@puv.fi
(SUOMI-FINLAND-PERKELE!!)

main riff

|---------------------------------|
|---------------------------------|
|--99-xx-9-99-77--22-xx-2-22-77---|
|--99-xx-9-99-77--22-xx-2-22-77---|
|--77-xx-7-77-55--00-xx-0-00-55---|
|---------------------------------|

verse riff

|----|------|
|----|------|
|----|--2---|
|--2-|--2---|
|--2-|--0---|
|--0-|------|

main riff

|-------------------------|
|-------------------------|
|--4-5-5555555-2222222----|
|--4-5-5555555-2222222----|
|--2-3-3333333-0000000----|
|-------------------------|

chorus riff
		     end
|-------------------|----|
|-------------------|----|
|-99--77--5---5--22-|-44-|
|-99--77--5---5--22-|-44-|
|-77--55--3---3--00-|-22-|
|--------x-----x----|----|

there is riff with piano, i don't
transribed it
main riff is during solo

end>>>>>>>>>>>>>>>>>>>>>>>>>>>>>>>>>>>>>>>>>>>>>>>>>

  Visit MetalTabs.com for more metal tablature

bottom separator

Contact Us | Privacy Policy | Disclaimer | Legal Notice
Copyright © 2001-2014 MetalTabs.com. All Rights Reserved.