top separator

Home

Forum

What's New

Submit a Tab

FAQ

Links

Contact Us

Link to Us

MuSpy.com

MetalTabs.com logo

Bands

0-9

A

B

C

D

E

F

G

H

I

J

K

L

M

N

O

P

Q

R

S

T

U

V

W

X

Y

Z

Search

What

Where
 

Forgotten Woods - "As the wolves gather" Guitar Tab

Plain Text Version
More Forgotten Woods Tabs

Hits: 6669
Rated: 4.33 out of 5 (3 votes)
Updated: 2003-06-01 10:06:19

 

By:

Darkenelf

sendpm.gif

email.gif

Important note
This tab is available online because we obtained explicit permission from Forgotten Woods or their label.


#----------------------------------PLEASE NOTE---------------------------------#
#This file is the author's own work and represents their interpretation of the #
#song. You may only use this file for private study, scholarship, or research. #
#Unless specified otherwise, this is NOT an official tab from the band members.#
#------------------------------------------------------------------------------#

  Visit MetalTabs.com for more metal tablature
  
Band: Forgotten Woods
Album: As The Wolves Gather
Song: As The Wolves Gather
Tabbed by: Martijn Wietsma (Darkenelf)
Email: dalvanian@yahoo.com
Tab-Date: 22-03-2003

Standard E Tuning

riff A:
|-------------------------------------------------------------------|
|-------------------------------------------------------------------|
|-------------------------------------------------------------------|
|-------------------------------------------------------------------|
|----2----2-3-----2----2-5----2----2-3----2---555-------------------|
|-00---00------00---00-----00---00-----00---0-----------------------|
							(8x)
riff B:
|-------------------------------------------------------------------|
|-------------------------------------------------------------------|
|-------------------------------------------------------------------|
|-------------------------------------------------------------------|
|-5-4-4-5-5-7-7-5---5-4-4-5-5-7-7-5---------------------------------|
|-3p2-2h3-3h5-5p3---3p2-2h3-3h5-5p3---------------------------------|

|-------------------------------------------------------------------|
|-------------------------------------------------------------------|
|-------------------------------------------------------------------|
|-5-4-4-5-5-7-7-5---5-4-4-5-5-7-7-5---------------------------------|
|-3p2-2h3-3h5-5p3---3p2-2h3-3h5-5p3---------------------------------|
|-------------------------------------------------------------------|
							(2x)
riff A:
|-------------------------------------------------------------------|
|-------------------------------------------------------------------|
|-------------------------------------------------------------------|
|-------------------------------------------------------------------|
|----2----2-3-----2----2-5----2----2-3----2---555-------------------|
|-00---00------00---00-----00---00-----00---0-----------------------|
							(6x)

riff C:
|-------------------------------------------------------------------|
|-------------------------------------------------------------------|
|-------------------------------------------------------------------|
|------------------5555555555555555---------------------------------|
|-2222222222222222--------------------------------------------------|
|-------------------------------------------------------------------|
							(1x)
riff D:
|-------------------------------------------------------------------|
|-------------------------------------------------------------------|
|------------------7777777777777777---------------------------------|
|-4444444444444444-5555555555555555---------------------------------|
|-2222222222222222--------------------------------------------------|
|-------------------------------------------------------------------|
							(4x)
riff E:
|-------------------------------------------------------------------|
|-------------------------------------------------------------------|
|-------------------------7777777777777777--------------------------|
|-44-4--44-4--44-4--44-4--5555555555555555--------------------------|
|-22-2--22-2--22-2--22-2--------------------------------------------|
|-------------------------------------------------------------------|
							(4x)
riff F:
|-------------------------------------------------------------------|
|-------------------------------------------------------------------|
|-------------------------------------------------------------------|
|-------------------------------------------------------------------|
|-5555555555555555-6p5h8888888888888888-----------------------------|
|-------------------------------------------------------------------|
							(6x)
riff B:
|-------------------------------------------------------------------|
|-------------------------------------------------------------------|
|-------------------------------------------------------------------|
|-------------------------------------------------------------------|
|-5-4-4-5-5-7-7-5---5-4-4-5-5-7-7-5---------------------------------|
|-3p2-2h3-3h5-5p3---3p2-2h3-3h5-5p3---------------------------------|

|-------------------------------------------------------------------|
|-------------------------------------------------------------------|
|-------------------------------------------------------------------|
|-5-4-4-5-5-7-7-5---5-4-4-5-5-7-7-5---------------------------------|
|-3p2-2h3-3h5-5p3---3p2-2h3-3h5-5p3---------------------------------|
|-------------------------------------------------------------------|
							(2x)
riff A:
|-------------------------------------------------------------------|
|-------------------------------------------------------------------|
|-------------------------------------------------------------------|
|-------------------------------------------------------------------|
|----2----2-3-----2----2-5----2----2-3----2---555-------------------|
|-00---00------00---00-----00---00-----00---0-----------------------|
							(8x)
riff G:
|-------------------------------------------------------------------|
|-------------------------------------------------------------------|
|-------------------------------------------------------------------|
|-7--77-77--10--10-10--10-10---5--55-55--3--33-33-------------------|
|-5--55-55---8---8--8---8--8---3--33-33--1--11-11--3-1-3------------|
|-------------------------------------------------------------------|
							(4x)
riff H:
|-------------------------------------------------------------------|
|-------------------------------------------------------------------|
|-------------------------------------------------------------------|
|--------2-----------------------------2----------------------------|
|-3------2-------7------5-------3------2----------------------------|
|-1------0-------5------3-------1------0----------------------------|
							(1x)
riff I:
|-------------------------------------------------------------------|
|-------------------------------------------------------------------|
|-------------------------------------------------------------------|
|-----------------------2-------------------------------------------|
|-7------5-------3------2------------7-----5------------------------|
|-5------3-------1------0--(3x)------5-----3------------------------|

riff J: (solo)
|-------------------------------------------------------------------|
|-------------------------------------------------------------------|
|-------------------------------------------------------------------|
|-/5h7-5--3--3h5-3--2h3p2---/7-7h9-7--5-7-5--3-3-5-3--2-3-2---------|
|-------------------------------------------------------------------|
|-------------------------------------------------------------------|

|-------------------------------------------------------------------|
|-------------------------------------------------------------------|
|-------------------------------------------------------------------|
|-/7-7h9-7--5-7-5---------------------------------------------------|
|-------------------------------------------------------------------|
|-------------------------------------------------------------------|

riff F:
|-------------------------------------------------------------------|
|-------------------------------------------------------------------|
|-------------------------------------------------------------------|
|-------------------------------------------------------------------|
|-5555555555555555-6p5h8888888888888888-----------------------------|
|-------------------------------------------------------------------|
							(4x)
riff K:
|-------------------------------------------------------------------|
|-------------------------------------------------------------------|
|-------------------------------------------------------------------|
|-10--8-8-7----8-7-8-10---------------------------------------------|
|--8--6-6-5----6-5-6--8---------------------------------------------|
|-------------------------------------------------------------------|
							(4x)
riff L:
|-------------------------------------------------------------------|
|-------------------------------------------------------------------|
|-------------------------------------------------------------------|
|-10--8-8-7-7-7-7----8-7-8-10-10-10-10------------------------------|
|--8--6-6-5-5-5-5----6-5-6--8--8--8--8------------------------------|
|-------------------------------------------------------------------|
							(4x)
riff M:
|-3-2-3-5-3-2-3-2---3-2-3-5-3-2-3-2---------------------------------|
|-------------------------------------------------------------------|
|-------------------------------------------------------------------|
|-------------------------------------------------------------------|
|-------------------------------------------------------------------|
|-------------------------------------------------------------------|

|-4-3-4-6-4-3-4-3---4-3-4-6-4-3-4-3---------------------------------|
|-------------------------------------------------------------------|
|-------------------------------------------------------------------|
|-------------------------------------------------------------------|
|-------------------------------------------------------------------|
|-------------------------------------------------------------------|
							(8x)
riff N:
|-------------------------------------------------------------------|
|-3-4-3----------5-6-5----------------------------------------------|
|--------3-2-0----------6-5-3---------------------------------------|
|-------------------------------------------------------------------|
|-------------------------------------------------------------------|
|-------------------------------------------------------------------|
							(4x)
riff A:
|-------------------------------------------------------------------|
|-------------------------------------------------------------------|
|-------------------------------------------------------------------|
|-------------------------------------------------------------------|
|----2----2-3-----2----2-5----2----2-3----2---555-------------------|
|-00---00------00---00-----00---00-----00---0-----------------------|
							(8x)
riff O:
|-------------------------------------------------------------------|
|-------------------------------------------------------------------|
|-------------------------------------------------------------------|
|-----10-10-------10-10p9-------------------------------------------|
|-77---8--8---77---8--8p7-------------------------------------------|
|-55----------55----------------------------------------------------|
							(8x)
riff P: (end riff)
|-------------------------------------------------------------------|
|-------------------------------------------------------------------|
|-------------------------------------------------------------------|
|---------------------------------55-5-5h---------------------------|
|----88-77-88-8-8p7--------88-77----------8-------------------------|
|-55--------------------55------------------------------------------|
							(2x)

  Visit MetalTabs.com for more metal tablature

bottom separator

Contact Us | Privacy Policy | Disclaimer | Legal Notice
Copyright © 2001-2014 MetalTabs.com. All Rights Reserved.